ISO-10303-21;
HEADER;
/* Generated by software containing ST-Developer
 * from STEP Tools, Inc. (www.steptools.com) 
 */
/* OPTION: using custom renumber hook */

FILE_DESCRIPTION(
/* description */ ('STEP AP242',
'CAx-IF Rec.Pracs.---Representation and Presentation of Product Manufa
cturing Information (PMI)---4.0---2014-10-13',
'CAx-IF Rec.Pracs.---3D Tessellated Geometry---0.4---2014-09-14','2;1'),

/* implementation_level */ '2;1');

FILE_NAME(
/* name */ '6601c971c1919b3c5bc8f68a',
/* time_stamp */ '2024-03-25T18:58:57Z',
/* author */ (''),
/* organization */ (''),
/* preprocessor_version */ 'ST-DEVELOPER v19.4',
/* originating_system */ '  ',
/* authorisation */ '  ');

FILE_SCHEMA (('AP242_MANAGED_MODEL_BASED_3D_ENGINEERING_MIM_LF { 1 0 10303 442 1 1 4 }'));
ENDSEC;

DATA;
#10=SHAPE_REPRESENTATION_RELATIONSHIP('','',#290,#11);
#11=ADVANCED_BREP_SHAPE_REPRESENTATION('',(#288),#497);
#12=SPHERICAL_SURFACE('',#319,0.007);
#13=SPHERICAL_SURFACE('',#320,0.007);
#14=SPHERICAL_SURFACE('',#321,0.007);
#15=SPHERICAL_SURFACE('',#322,0.007);
#16=SPHERICAL_SURFACE('',#323,0.007);
#17=SPHERICAL_SURFACE('',#324,0.007);
#18=SPHERICAL_SURFACE('',#325,0.007);
#19=SPHERICAL_SURFACE('',#326,0.007);
#20=SPHERICAL_SURFACE('',#327,0.007);
#21=CIRCLE('',#294,0.00635);
#22=CIRCLE('',#295,0.00635);
#23=CIRCLE('',#298,0.00635);
#24=CIRCLE('',#299,0.00635);
#25=CIRCLE('',#302,0.00635);
#26=CIRCLE('',#303,0.00635);
#27=CIRCLE('',#306,0.00635);
#28=CIRCLE('',#307,0.00635);
#29=CIRCLE('',#309,0.007);
#30=CIRCLE('',#310,0.007);
#31=CIRCLE('',#311,0.007);
#32=CIRCLE('',#312,0.007);
#33=CIRCLE('',#313,0.007);
#34=CIRCLE('',#314,0.007);
#35=CIRCLE('',#315,0.007);
#36=CIRCLE('',#316,0.007);
#37=CIRCLE('',#317,0.007);
#38=CYLINDRICAL_SURFACE('',#293,0.00635);
#39=CYLINDRICAL_SURFACE('',#297,0.00635);
#40=CYLINDRICAL_SURFACE('',#301,0.00635);
#41=CYLINDRICAL_SURFACE('',#305,0.00635);
#42=ORIENTED_EDGE('',*,*,#108,.F.);
#43=ORIENTED_EDGE('',*,*,#109,.F.);
#44=ORIENTED_EDGE('',*,*,#110,.T.);
#45=ORIENTED_EDGE('',*,*,#111,.T.);
#46=ORIENTED_EDGE('',*,*,#112,.T.);
#47=ORIENTED_EDGE('',*,*,#113,.F.);
#48=ORIENTED_EDGE('',*,*,#114,.F.);
#49=ORIENTED_EDGE('',*,*,#109,.T.);
#50=ORIENTED_EDGE('',*,*,#115,.T.);
#51=ORIENTED_EDGE('',*,*,#116,.F.);
#52=ORIENTED_EDGE('',*,*,#117,.F.);
#53=ORIENTED_EDGE('',*,*,#113,.T.);
#54=ORIENTED_EDGE('',*,*,#118,.T.);
#55=ORIENTED_EDGE('',*,*,#119,.F.);
#56=ORIENTED_EDGE('',*,*,#120,.F.);
#57=ORIENTED_EDGE('',*,*,#116,.T.);
#58=ORIENTED_EDGE('',*,*,#121,.T.);
#59=ORIENTED_EDGE('',*,*,#122,.F.);
#60=ORIENTED_EDGE('',*,*,#123,.F.);
#61=ORIENTED_EDGE('',*,*,#119,.T.);
#62=ORIENTED_EDGE('',*,*,#124,.T.);
#63=ORIENTED_EDGE('',*,*,#125,.F.);
#64=ORIENTED_EDGE('',*,*,#126,.F.);
#65=ORIENTED_EDGE('',*,*,#122,.T.);
#66=ORIENTED_EDGE('',*,*,#127,.F.);
#67=ORIENTED_EDGE('',*,*,#128,.F.);
#68=ORIENTED_EDGE('',*,*,#129,.T.);
#69=ORIENTED_EDGE('',*,*,#125,.T.);
#70=ORIENTED_EDGE('',*,*,#130,.T.);
#71=ORIENTED_EDGE('',*,*,#111,.F.);
#72=ORIENTED_EDGE('',*,*,#131,.F.);
#73=ORIENTED_EDGE('',*,*,#128,.T.);
#74=ORIENTED_EDGE('',*,*,#132,.F.);
#75=ORIENTED_EDGE('',*,*,#133,.F.);
#76=ORIENTED_EDGE('',*,*,#134,.F.);
#77=ORIENTED_EDGE('',*,*,#135,.F.);
#78=ORIENTED_EDGE('',*,*,#136,.F.);
#79=ORIENTED_EDGE('',*,*,#137,.F.);
#80=ORIENTED_EDGE('',*,*,#138,.F.);
#81=ORIENTED_EDGE('',*,*,#139,.F.);
#82=ORIENTED_EDGE('',*,*,#140,.F.);
#83=ORIENTED_EDGE('',*,*,#110,.F.);
#84=ORIENTED_EDGE('',*,*,#114,.T.);
#85=ORIENTED_EDGE('',*,*,#117,.T.);
#86=ORIENTED_EDGE('',*,*,#120,.T.);
#87=ORIENTED_EDGE('',*,*,#123,.T.);
#88=ORIENTED_EDGE('',*,*,#126,.T.);
#89=ORIENTED_EDGE('',*,*,#129,.F.);
#90=ORIENTED_EDGE('',*,*,#131,.T.);
#91=ORIENTED_EDGE('',*,*,#108,.T.);
#92=ORIENTED_EDGE('',*,*,#130,.F.);
#93=ORIENTED_EDGE('',*,*,#127,.T.);
#94=ORIENTED_EDGE('',*,*,#124,.F.);
#95=ORIENTED_EDGE('',*,*,#121,.F.);
#96=ORIENTED_EDGE('',*,*,#118,.F.);
#97=ORIENTED_EDGE('',*,*,#115,.F.);
#98=ORIENTED_EDGE('',*,*,#112,.F.);
#99=ORIENTED_EDGE('',*,*,#140,.T.);
#100=ORIENTED_EDGE('',*,*,#139,.T.);
#101=ORIENTED_EDGE('',*,*,#138,.T.);
#102=ORIENTED_EDGE('',*,*,#137,.T.);
#103=ORIENTED_EDGE('',*,*,#136,.T.);
#104=ORIENTED_EDGE('',*,*,#135,.T.);
#105=ORIENTED_EDGE('',*,*,#134,.T.);
#106=ORIENTED_EDGE('',*,*,#133,.T.);
#107=ORIENTED_EDGE('',*,*,#132,.T.);
#108=EDGE_CURVE('',#141,#142,#166,.T.);
#109=EDGE_CURVE('',#143,#141,#167,.T.);
#110=EDGE_CURVE('',#143,#144,#168,.T.);
#111=EDGE_CURVE('',#144,#142,#169,.T.);
#112=EDGE_CURVE('',#141,#145,#21,.T.);
#113=EDGE_CURVE('',#146,#145,#170,.T.);
#114=EDGE_CURVE('',#143,#146,#22,.T.);
#115=EDGE_CURVE('',#145,#147,#171,.T.);
#116=EDGE_CURVE('',#148,#147,#172,.T.);
#117=EDGE_CURVE('',#146,#148,#173,.T.);
#118=EDGE_CURVE('',#147,#149,#23,.T.);
#119=EDGE_CURVE('',#150,#149,#174,.T.);
#120=EDGE_CURVE('',#148,#150,#24,.T.);
#121=EDGE_CURVE('',#149,#151,#175,.T.);
#122=EDGE_CURVE('',#152,#151,#176,.T.);
#123=EDGE_CURVE('',#150,#152,#177,.T.);
#124=EDGE_CURVE('',#151,#153,#25,.T.);
#125=EDGE_CURVE('',#154,#153,#178,.T.);
#126=EDGE_CURVE('',#152,#154,#26,.T.);
#127=EDGE_CURVE('',#155,#153,#179,.T.);
#128=EDGE_CURVE('',#156,#155,#180,.T.);
#129=EDGE_CURVE('',#156,#154,#181,.T.);
#130=EDGE_CURVE('',#155,#142,#27,.T.);
#131=EDGE_CURVE('',#156,#144,#28,.T.);
#132=EDGE_CURVE('',#157,#157,#29,.T.);
#133=EDGE_CURVE('',#158,#158,#30,.T.);
#134=EDGE_CURVE('',#159,#159,#31,.T.);
#135=EDGE_CURVE('',#160,#160,#32,.T.);
#136=EDGE_CURVE('',#161,#161,#33,.T.);
#137=EDGE_CURVE('',#162,#162,#34,.T.);
#138=EDGE_CURVE('',#163,#163,#35,.T.);
#139=EDGE_CURVE('',#164,#164,#36,.T.);
#140=EDGE_CURVE('',#165,#165,#37,.T.);
#141=VERTEX_POINT('',#421);
#142=VERTEX_POINT('',#422);
#143=VERTEX_POINT('',#424);
#144=VERTEX_POINT('',#426);
#145=VERTEX_POINT('',#430);
#146=VERTEX_POINT('',#432);
#147=VERTEX_POINT('',#436);
#148=VERTEX_POINT('',#438);
#149=VERTEX_POINT('',#442);
#150=VERTEX_POINT('',#444);
#151=VERTEX_POINT('',#448);
#152=VERTEX_POINT('',#450);
#153=VERTEX_POINT('',#454);
#154=VERTEX_POINT('',#456);
#155=VERTEX_POINT('',#460);
#156=VERTEX_POINT('',#462);
#157=VERTEX_POINT('',#469);
#158=VERTEX_POINT('',#471);
#159=VERTEX_POINT('',#473);
#160=VERTEX_POINT('',#475);
#161=VERTEX_POINT('',#477);
#162=VERTEX_POINT('',#479);
#163=VERTEX_POINT('',#481);
#164=VERTEX_POINT('',#483);
#165=VERTEX_POINT('',#485);
#166=LINE('',#420,#182);
#167=LINE('',#423,#183);
#168=LINE('',#425,#184);
#169=LINE('',#427,#185);
#170=LINE('',#431,#186);
#171=LINE('',#435,#187);
#172=LINE('',#437,#188);
#173=LINE('',#439,#189);
#174=LINE('',#443,#190);
#175=LINE('',#447,#191);
#176=LINE('',#449,#192);
#177=LINE('',#451,#193);
#178=LINE('',#455,#194);
#179=LINE('',#459,#195);
#180=LINE('',#461,#196);
#181=LINE('',#463,#197);
#182=VECTOR('',#332,1.);
#183=VECTOR('',#333,1.);
#184=VECTOR('',#334,1.);
#185=VECTOR('',#335,1.);
#186=VECTOR('',#340,1.);
#187=VECTOR('',#345,1.);
#188=VECTOR('',#346,1.);
#189=VECTOR('',#347,1.);
#190=VECTOR('',#352,1.);
#191=VECTOR('',#357,1.);
#192=VECTOR('',#358,1.);
#193=VECTOR('',#359,1.);
#194=VECTOR('',#364,1.);
#195=VECTOR('',#369,1.);
#196=VECTOR('',#370,1.);
#197=VECTOR('',#371,1.);
#198=EDGE_LOOP('',(#42,#43,#44,#45));
#199=EDGE_LOOP('',(#46,#47,#48,#49));
#200=EDGE_LOOP('',(#50,#51,#52,#53));
#201=EDGE_LOOP('',(#54,#55,#56,#57));
#202=EDGE_LOOP('',(#58,#59,#60,#61));
#203=EDGE_LOOP('',(#62,#63,#64,#65));
#204=EDGE_LOOP('',(#66,#67,#68,#69));
#205=EDGE_LOOP('',(#70,#71,#72,#73));
#206=EDGE_LOOP('',(#74));
#207=EDGE_LOOP('',(#75));
#208=EDGE_LOOP('',(#76));
#209=EDGE_LOOP('',(#77));
#210=EDGE_LOOP('',(#78));
#211=EDGE_LOOP('',(#79));
#212=EDGE_LOOP('',(#80));
#213=EDGE_LOOP('',(#81));
#214=EDGE_LOOP('',(#82));
#215=EDGE_LOOP('',(#83,#84,#85,#86,#87,#88,#89,#90));
#216=EDGE_LOOP('',(#91,#92,#93,#94,#95,#96,#97,#98));
#217=EDGE_LOOP('',(#99));
#218=EDGE_LOOP('',(#100));
#219=EDGE_LOOP('',(#101));
#220=EDGE_LOOP('',(#102));
#221=EDGE_LOOP('',(#103));
#222=EDGE_LOOP('',(#104));
#223=EDGE_LOOP('',(#105));
#224=EDGE_LOOP('',(#106));
#225=EDGE_LOOP('',(#107));
#226=FACE_BOUND('',#198,.T.);
#227=FACE_BOUND('',#199,.T.);
#228=FACE_BOUND('',#200,.T.);
#229=FACE_BOUND('',#201,.T.);
#230=FACE_BOUND('',#202,.T.);
#231=FACE_BOUND('',#203,.T.);
#232=FACE_BOUND('',#204,.T.);
#233=FACE_BOUND('',#205,.T.);
#234=FACE_BOUND('',#206,.T.);
#235=FACE_BOUND('',#207,.T.);
#236=FACE_BOUND('',#208,.T.);
#237=FACE_BOUND('',#209,.T.);
#238=FACE_BOUND('',#210,.T.);
#239=FACE_BOUND('',#211,.T.);
#240=FACE_BOUND('',#212,.T.);
#241=FACE_BOUND('',#213,.T.);
#242=FACE_BOUND('',#214,.T.);
#243=FACE_BOUND('',#215,.T.);
#244=FACE_BOUND('',#216,.T.);
#245=FACE_BOUND('',#217,.T.);
#246=FACE_BOUND('',#218,.T.);
#247=FACE_BOUND('',#219,.T.);
#248=FACE_BOUND('',#220,.T.);
#249=FACE_BOUND('',#221,.T.);
#250=FACE_BOUND('',#222,.T.);
#251=FACE_BOUND('',#223,.T.);
#252=FACE_BOUND('',#224,.T.);
#253=FACE_BOUND('',#225,.T.);
#254=PLANE('',#292);
#255=PLANE('',#296);
#256=PLANE('',#300);
#257=PLANE('',#304);
#258=PLANE('',#308);
#259=PLANE('',#318);
#260=ADVANCED_FACE('',(#226),#254,.T.);
#261=ADVANCED_FACE('',(#227),#38,.T.);
#262=ADVANCED_FACE('',(#228),#255,.F.);
#263=ADVANCED_FACE('',(#229),#39,.T.);
#264=ADVANCED_FACE('',(#230),#256,.F.);
#265=ADVANCED_FACE('',(#231),#40,.T.);
#266=ADVANCED_FACE('',(#232),#257,.T.);
#267=ADVANCED_FACE('',(#233),#41,.T.);
#268=ADVANCED_FACE('',(#234,#235,#236,#237,#238,#239,#240,#241,#242,#243),
#258,.T.);
#269=ADVANCED_FACE('',(#244),#259,.F.);
#270=ADVANCED_FACE('',(#245),#12,.F.);
#271=ADVANCED_FACE('',(#246),#13,.F.);
#272=ADVANCED_FACE('',(#247),#14,.F.);
#273=ADVANCED_FACE('',(#248),#15,.F.);
#274=ADVANCED_FACE('',(#249),#16,.F.);
#275=ADVANCED_FACE('',(#250),#17,.F.);
#276=ADVANCED_FACE('',(#251),#18,.F.);
#277=ADVANCED_FACE('',(#252),#19,.F.);
#278=ADVANCED_FACE('',(#253),#20,.F.);
#279=CLOSED_SHELL('',(#260,#261,#262,#263,#264,#265,#266,#267,#268,#269,
#270,#271,#272,#273,#274,#275,#276,#277,#278));
#280=STYLED_ITEM('',(#281),#288);
#281=PRESENTATION_STYLE_ASSIGNMENT((#282));
#282=SURFACE_STYLE_USAGE(.BOTH.,#283);
#283=SURFACE_SIDE_STYLE('',(#284));
#284=SURFACE_STYLE_FILL_AREA(#285);
#285=FILL_AREA_STYLE('',(#286));
#286=FILL_AREA_STYLE_COLOUR('',#287);
#287=COLOUR_RGB('',0.8,0.8,0.8);
#288=MANIFOLD_SOLID_BREP('Board 10 mm',#279);
#289=SHAPE_DEFINITION_REPRESENTATION(#502,#290);
#290=SHAPE_REPRESENTATION('Board 10 mm',(#291),#497);
#291=AXIS2_PLACEMENT_3D('',#418,#328,#329);
#292=AXIS2_PLACEMENT_3D('',#419,#330,#331);
#293=AXIS2_PLACEMENT_3D('',#428,#336,#337);
#294=AXIS2_PLACEMENT_3D('',#429,#338,#339);
#295=AXIS2_PLACEMENT_3D('',#433,#341,#342);
#296=AXIS2_PLACEMENT_3D('',#434,#343,#344);
#297=AXIS2_PLACEMENT_3D('',#440,#348,#349);
#298=AXIS2_PLACEMENT_3D('',#441,#350,#351);
#299=AXIS2_PLACEMENT_3D('',#445,#353,#354);
#300=AXIS2_PLACEMENT_3D('',#446,#355,#356);
#301=AXIS2_PLACEMENT_3D('',#452,#360,#361);
#302=AXIS2_PLACEMENT_3D('',#453,#362,#363);
#303=AXIS2_PLACEMENT_3D('',#457,#365,#366);
#304=AXIS2_PLACEMENT_3D('',#458,#367,#368);
#305=AXIS2_PLACEMENT_3D('',#464,#372,#373);
#306=AXIS2_PLACEMENT_3D('',#465,#374,#375);
#307=AXIS2_PLACEMENT_3D('',#466,#376,#377);
#308=AXIS2_PLACEMENT_3D('',#467,#378,#379);
#309=AXIS2_PLACEMENT_3D('',#468,#380,#381);
#310=AXIS2_PLACEMENT_3D('',#470,#382,#383);
#311=AXIS2_PLACEMENT_3D('',#472,#384,#385);
#312=AXIS2_PLACEMENT_3D('',#474,#386,#387);
#313=AXIS2_PLACEMENT_3D('',#476,#388,#389);
#314=AXIS2_PLACEMENT_3D('',#478,#390,#391);
#315=AXIS2_PLACEMENT_3D('',#480,#392,#393);
#316=AXIS2_PLACEMENT_3D('',#482,#394,#395);
#317=AXIS2_PLACEMENT_3D('',#484,#396,#397);
#318=AXIS2_PLACEMENT_3D('',#486,#398,#399);
#319=AXIS2_PLACEMENT_3D('',#487,#400,#401);
#320=AXIS2_PLACEMENT_3D('',#488,#402,#403);
#321=AXIS2_PLACEMENT_3D('',#489,#404,#405);
#322=AXIS2_PLACEMENT_3D('',#490,#406,#407);
#323=AXIS2_PLACEMENT_3D('',#491,#408,#409);
#324=AXIS2_PLACEMENT_3D('',#492,#410,#411);
#325=AXIS2_PLACEMENT_3D('',#493,#412,#413);
#326=AXIS2_PLACEMENT_3D('',#494,#414,#415);
#327=AXIS2_PLACEMENT_3D('',#495,#416,#417);
#328=DIRECTION('',(0.,0.,1.));
#329=DIRECTION('',(1.,0.,0.));
#330=DIRECTION('',(1.,0.,0.));
#331=DIRECTION('',(0.,0.,-1.));
#332=DIRECTION('',(0.,-1.,0.));
#333=DIRECTION('',(0.,0.,-1.));
#334=DIRECTION('',(0.,-1.,0.));
#335=DIRECTION('',(0.,0.,-1.));
#336=DIRECTION('',(0.,0.,-1.));
#337=DIRECTION('',(-1.,0.,0.));
#338=DIRECTION('',(0.,0.,1.));
#339=DIRECTION('',(1.,0.,0.));
#340=DIRECTION('',(0.,0.,-1.));
#341=DIRECTION('',(0.,0.,1.));
#342=DIRECTION('',(1.,0.,0.));
#343=DIRECTION('',(0.,-1.,0.));
#344=DIRECTION('',(0.,0.,-1.));
#345=DIRECTION('',(-1.,0.,0.));
#346=DIRECTION('',(0.,0.,-1.));
#347=DIRECTION('',(-1.,0.,0.));
#348=DIRECTION('',(0.,0.,-1.));
#349=DIRECTION('',(-1.,0.,0.));
#350=DIRECTION('',(0.,0.,1.));
#351=DIRECTION('',(1.,0.,0.));
#352=DIRECTION('',(0.,0.,-1.));
#353=DIRECTION('',(0.,0.,1.));
#354=DIRECTION('',(1.,0.,0.));
#355=DIRECTION('',(1.,0.,0.));
#356=DIRECTION('',(0.,0.,-1.));
#357=DIRECTION('',(0.,-1.,0.));
#358=DIRECTION('',(0.,0.,-1.));
#359=DIRECTION('',(0.,-1.,0.));
#360=DIRECTION('',(0.,0.,-1.));
#361=DIRECTION('',(-1.,0.,0.));
#362=DIRECTION('',(0.,0.,1.));
#363=DIRECTION('',(1.,0.,0.));
#364=DIRECTION('',(0.,0.,-1.));
#365=DIRECTION('',(0.,0.,1.));
#366=DIRECTION('',(1.,0.,0.));
#367=DIRECTION('',(0.,-1.,0.));
#368=DIRECTION('',(0.,0.,-1.));
#369=DIRECTION('',(-1.,0.,0.));
#370=DIRECTION('',(0.,0.,-1.));
#371=DIRECTION('',(-1.,0.,0.));
#372=DIRECTION('',(0.,0.,-1.));
#373=DIRECTION('',(-1.,0.,0.));
#374=DIRECTION('',(0.,0.,1.));
#375=DIRECTION('',(1.,0.,0.));
#376=DIRECTION('',(0.,0.,1.));
#377=DIRECTION('',(1.,0.,0.));
#378=DIRECTION('',(0.,0.,1.));
#379=DIRECTION('',(1.,0.,0.));
#380=DIRECTION('',(0.,0.,1.));
#381=DIRECTION('',(1.,0.,0.));
#382=DIRECTION('',(0.,0.,1.));
#383=DIRECTION('',(1.,0.,0.));
#384=DIRECTION('',(0.,0.,1.));
#385=DIRECTION('',(1.,0.,0.));
#386=DIRECTION('',(0.,0.,1.));
#387=DIRECTION('',(1.,0.,0.));
#388=DIRECTION('',(0.,0.,1.));
#389=DIRECTION('',(1.,0.,0.));
#390=DIRECTION('',(0.,0.,1.));
#391=DIRECTION('',(1.,0.,0.));
#392=DIRECTION('',(0.,0.,1.));
#393=DIRECTION('',(1.,0.,0.));
#394=DIRECTION('',(0.,0.,1.));
#395=DIRECTION('',(1.,0.,0.));
#396=DIRECTION('',(0.,0.,1.));
#397=DIRECTION('',(1.,0.,0.));
#398=DIRECTION('',(0.,0.,1.));
#399=DIRECTION('',(1.,0.,0.));
#400=DIRECTION('',(1.,0.,0.));
#401=DIRECTION('',(0.,-1.,0.));
#402=DIRECTION('',(1.,0.,0.));
#403=DIRECTION('',(0.,-1.,0.));
#404=DIRECTION('',(1.,0.,0.));
#405=DIRECTION('',(0.,-1.,0.));
#406=DIRECTION('',(1.,0.,0.));
#407=DIRECTION('',(0.,-1.,0.));
#408=DIRECTION('',(1.,0.,0.));
#409=DIRECTION('',(0.,-1.,0.));
#410=DIRECTION('',(1.,0.,0.));
#411=DIRECTION('',(0.,-1.,0.));
#412=DIRECTION('',(1.,0.,0.));
#413=DIRECTION('',(0.,-1.,0.));
#414=DIRECTION('',(1.,0.,0.));
#415=DIRECTION('',(0.,-1.,0.));
#416=DIRECTION('',(1.,0.,0.));
#417=DIRECTION('',(0.,-1.,0.));
#418=CARTESIAN_POINT('',(0.,0.,0.));
#419=CARTESIAN_POINT('',(0.0381,3.46944695195361E-18,0.01));
#420=CARTESIAN_POINT('',(0.0381,3.46944695195361E-18,0.));
#421=CARTESIAN_POINT('',(0.0381,0.03175,0.));
#422=CARTESIAN_POINT('',(0.0381,-0.03175,0.));
#423=CARTESIAN_POINT('',(0.0381,0.03175,0.01));
#424=CARTESIAN_POINT('',(0.0381,0.03175,0.01));
#425=CARTESIAN_POINT('',(0.0381,3.46944695195361E-18,0.01));
#426=CARTESIAN_POINT('',(0.0381,-0.03175,0.01));
#427=CARTESIAN_POINT('',(0.0381,-0.03175,0.01));
#428=CARTESIAN_POINT('',(0.03175,0.03175,0.01));
#429=CARTESIAN_POINT('',(0.03175,0.03175,0.));
#430=CARTESIAN_POINT('',(0.03175,0.0381,0.));
#431=CARTESIAN_POINT('',(0.03175,0.0381,0.01));
#432=CARTESIAN_POINT('',(0.03175,0.0381,0.01));
#433=CARTESIAN_POINT('',(0.03175,0.03175,0.01));
#434=CARTESIAN_POINT('',(0.,0.0381,0.01));
#435=CARTESIAN_POINT('',(0.,0.0381,0.));
#436=CARTESIAN_POINT('',(-0.03175,0.0381,0.));
#437=CARTESIAN_POINT('',(-0.03175,0.0381,0.01));
#438=CARTESIAN_POINT('',(-0.03175,0.0381,0.01));
#439=CARTESIAN_POINT('',(0.,0.0381,0.01));
#440=CARTESIAN_POINT('',(-0.03175,0.03175,0.01));
#441=CARTESIAN_POINT('',(-0.03175,0.03175,0.));
#442=CARTESIAN_POINT('',(-0.0381,0.03175,0.));
#443=CARTESIAN_POINT('',(-0.0381,0.03175,0.01));
#444=CARTESIAN_POINT('',(-0.0381,0.03175,0.01));
#445=CARTESIAN_POINT('',(-0.03175,0.03175,0.01));
#446=CARTESIAN_POINT('',(-0.0381,-3.46944695195361E-18,0.01));
#447=CARTESIAN_POINT('',(-0.0381,-3.46944695195361E-18,0.));
#448=CARTESIAN_POINT('',(-0.0381,-0.03175,0.));
#449=CARTESIAN_POINT('',(-0.0381,-0.03175,0.01));
#450=CARTESIAN_POINT('',(-0.0381,-0.03175,0.01));
#451=CARTESIAN_POINT('',(-0.0381,-3.46944695195361E-18,0.01));
#452=CARTESIAN_POINT('',(-0.03175,-0.03175,0.01));
#453=CARTESIAN_POINT('',(-0.03175,-0.03175,0.));
#454=CARTESIAN_POINT('',(-0.03175,-0.0381,0.));
#455=CARTESIAN_POINT('',(-0.03175,-0.0381,0.01));
#456=CARTESIAN_POINT('',(-0.03175,-0.0381,0.01));
#457=CARTESIAN_POINT('',(-0.03175,-0.03175,0.01));
#458=CARTESIAN_POINT('',(0.,-0.0381,0.01));
#459=CARTESIAN_POINT('',(0.,-0.0381,0.));
#460=CARTESIAN_POINT('',(0.03175,-0.0381,0.));
#461=CARTESIAN_POINT('',(0.03175,-0.0381,0.01));
#462=CARTESIAN_POINT('',(0.03175,-0.0381,0.01));
#463=CARTESIAN_POINT('',(0.,-0.0381,0.01));
#464=CARTESIAN_POINT('',(0.03175,-0.03175,0.01));
#465=CARTESIAN_POINT('',(0.03175,-0.03175,0.));
#466=CARTESIAN_POINT('',(0.03175,-0.03175,0.01));
#467=CARTESIAN_POINT('',(0.,0.,0.01));
#468=CARTESIAN_POINT('',(0.0254,-0.0254,0.01));
#469=CARTESIAN_POINT('',(0.0324,-0.0254,0.01));
#470=CARTESIAN_POINT('',(6.07153216591882E-18,-0.0254,0.01));
#471=CARTESIAN_POINT('',(0.00700000000000001,-0.0254,0.01));
#472=CARTESIAN_POINT('',(-0.0254,-0.0254,0.01));
#473=CARTESIAN_POINT('',(-0.0184,-0.0254,0.01));
#474=CARTESIAN_POINT('',(0.0254,4.28626379701574E-19,0.01));
#475=CARTESIAN_POINT('',(0.0324,4.28626379701574E-19,0.01));
#476=CARTESIAN_POINT('',(3.46944695195361E-18,4.28626379701574E-19,0.01));
#477=CARTESIAN_POINT('',(0.007,4.28626379701574E-19,0.01));
#478=CARTESIAN_POINT('',(-0.0254,4.28626379701574E-19,0.01));
#479=CARTESIAN_POINT('',(-0.0184,4.28626379701574E-19,0.01));
#480=CARTESIAN_POINT('',(0.0254,0.0254,0.01));
#481=CARTESIAN_POINT('',(0.0324,0.0254,0.01));
#482=CARTESIAN_POINT('',(0.,0.0254,0.01));
#483=CARTESIAN_POINT('',(0.007,0.0254,0.01));
#484=CARTESIAN_POINT('',(-0.0254,0.0254,0.01));
#485=CARTESIAN_POINT('',(-0.0184,0.0254,0.01));
#486=CARTESIAN_POINT('',(0.,0.,0.));
#487=CARTESIAN_POINT('',(-0.0254,0.0254,0.01));
#488=CARTESIAN_POINT('',(0.,0.0254,0.01));
#489=CARTESIAN_POINT('',(0.0254,0.0254,0.01));
#490=CARTESIAN_POINT('',(-0.0254,4.28626379701574E-19,0.01));
#491=CARTESIAN_POINT('',(3.46944695195361E-18,4.28626379701574E-19,0.01));
#492=CARTESIAN_POINT('',(0.0254,4.28626379701574E-19,0.01));
#493=CARTESIAN_POINT('',(-0.0254,-0.0254,0.01));
#494=CARTESIAN_POINT('',(6.07153216591882E-18,-0.0254,0.01));
#495=CARTESIAN_POINT('',(0.0254,-0.0254,0.01));
#496=MECHANICAL_DESIGN_GEOMETRIC_PRESENTATION_REPRESENTATION('',(#280),
#497);
#497=(
GEOMETRIC_REPRESENTATION_CONTEXT(3)
GLOBAL_UNCERTAINTY_ASSIGNED_CONTEXT((#498))
GLOBAL_UNIT_ASSIGNED_CONTEXT((#501,#500,#499))
REPRESENTATION_CONTEXT('Board 10 mm','TOP_LEVEL_ASSEMBLY_PART')
);
#498=UNCERTAINTY_MEASURE_WITH_UNIT(LENGTH_MEASURE(5.E-6),#501,
'DISTANCE_ACCURACY_VALUE','Maximum Tolerance applied to model');
#499=(
NAMED_UNIT(*)
SI_UNIT($,.STERADIAN.)
SOLID_ANGLE_UNIT()
);
#500=(
NAMED_UNIT(*)
PLANE_ANGLE_UNIT()
SI_UNIT($,.RADIAN.)
);
#501=(
LENGTH_UNIT()
NAMED_UNIT(*)
SI_UNIT($,.METRE.)
);
#502=PRODUCT_DEFINITION_SHAPE('','',#503);
#503=PRODUCT_DEFINITION('','',#505,#504);
#504=PRODUCT_DEFINITION_CONTEXT('',#511,'design');
#505=PRODUCT_DEFINITION_FORMATION_WITH_SPECIFIED_SOURCE('','',#507,
 .NOT_KNOWN.);
#506=PRODUCT_RELATED_PRODUCT_CATEGORY('','',(#507));
#507=PRODUCT('Board 10 mm','Board 10 mm','Board 10 mm',(#509));
#508=PRODUCT_CATEGORY('','');
#509=PRODUCT_CONTEXT('',#511,'mechanical');
#510=APPLICATION_PROTOCOL_DEFINITION('international standard',
'ap242_managed_model_based_3d_engineering',2011,#511);
#511=APPLICATION_CONTEXT('managed model based 3d engineering');
ENDSEC;
END-ISO-10303-21;
