ISO-10303-21;
HEADER;
/* Generated by software containing ST-Developer
 * from STEP Tools, Inc. (www.steptools.com) 
 */
/* OPTION: using custom renumber hook */

FILE_DESCRIPTION(
/* description */ ('STEP AP242',
'CAx-IF Rec.Pracs.---Representation and Presentation of Product Manufa
cturing Information (PMI)---4.0---2014-10-13',
'CAx-IF Rec.Pracs.---3D Tessellated Geometry---0.4---2014-09-14','2;1'),

/* implementation_level */ '2;1');

FILE_NAME(
/* name */ '6601c8dec1919b3c5bc8f31b',
/* time_stamp */ '2024-03-25T18:56:31Z',
/* author */ (''),
/* organization */ (''),
/* preprocessor_version */ 'ST-DEVELOPER v19.4',
/* originating_system */ '  ',
/* authorisation */ '  ');

FILE_SCHEMA (('AP242_MANAGED_MODEL_BASED_3D_ENGINEERING_MIM_LF { 1 0 10303 442 1 1 4 }'));
ENDSEC;

DATA;
#10=SHAPE_REPRESENTATION_RELATIONSHIP('','',#214,#11);
#11=ADVANCED_BREP_SHAPE_REPRESENTATION('',(#212),#357);
#12=SPHERICAL_SURFACE('',#231,0.007);
#13=SPHERICAL_SURFACE('',#232,0.007);
#14=SPHERICAL_SURFACE('',#233,0.007);
#15=SPHERICAL_SURFACE('',#234,0.007);
#16=SPHERICAL_SURFACE('',#235,0.007);
#17=SPHERICAL_SURFACE('',#236,0.007);
#18=SPHERICAL_SURFACE('',#237,0.007);
#19=SPHERICAL_SURFACE('',#238,0.007);
#20=SPHERICAL_SURFACE('',#239,0.007);
#21=CIRCLE('',#221,0.007);
#22=CIRCLE('',#222,0.007);
#23=CIRCLE('',#223,0.007);
#24=CIRCLE('',#224,0.007);
#25=CIRCLE('',#225,0.007);
#26=CIRCLE('',#226,0.007);
#27=CIRCLE('',#227,0.007);
#28=CIRCLE('',#228,0.007);
#29=CIRCLE('',#229,0.007);
#30=ORIENTED_EDGE('',*,*,#72,.F.);
#31=ORIENTED_EDGE('',*,*,#73,.F.);
#32=ORIENTED_EDGE('',*,*,#74,.T.);
#33=ORIENTED_EDGE('',*,*,#75,.T.);
#34=ORIENTED_EDGE('',*,*,#76,.T.);
#35=ORIENTED_EDGE('',*,*,#77,.F.);
#36=ORIENTED_EDGE('',*,*,#78,.F.);
#37=ORIENTED_EDGE('',*,*,#73,.T.);
#38=ORIENTED_EDGE('',*,*,#79,.T.);
#39=ORIENTED_EDGE('',*,*,#80,.F.);
#40=ORIENTED_EDGE('',*,*,#81,.F.);
#41=ORIENTED_EDGE('',*,*,#77,.T.);
#42=ORIENTED_EDGE('',*,*,#82,.F.);
#43=ORIENTED_EDGE('',*,*,#75,.F.);
#44=ORIENTED_EDGE('',*,*,#83,.T.);
#45=ORIENTED_EDGE('',*,*,#80,.T.);
#46=ORIENTED_EDGE('',*,*,#84,.F.);
#47=ORIENTED_EDGE('',*,*,#85,.F.);
#48=ORIENTED_EDGE('',*,*,#86,.F.);
#49=ORIENTED_EDGE('',*,*,#87,.F.);
#50=ORIENTED_EDGE('',*,*,#88,.F.);
#51=ORIENTED_EDGE('',*,*,#89,.F.);
#52=ORIENTED_EDGE('',*,*,#90,.F.);
#53=ORIENTED_EDGE('',*,*,#91,.F.);
#54=ORIENTED_EDGE('',*,*,#92,.F.);
#55=ORIENTED_EDGE('',*,*,#74,.F.);
#56=ORIENTED_EDGE('',*,*,#78,.T.);
#57=ORIENTED_EDGE('',*,*,#81,.T.);
#58=ORIENTED_EDGE('',*,*,#83,.F.);
#59=ORIENTED_EDGE('',*,*,#72,.T.);
#60=ORIENTED_EDGE('',*,*,#82,.T.);
#61=ORIENTED_EDGE('',*,*,#79,.F.);
#62=ORIENTED_EDGE('',*,*,#76,.F.);
#63=ORIENTED_EDGE('',*,*,#92,.T.);
#64=ORIENTED_EDGE('',*,*,#91,.T.);
#65=ORIENTED_EDGE('',*,*,#90,.T.);
#66=ORIENTED_EDGE('',*,*,#89,.T.);
#67=ORIENTED_EDGE('',*,*,#88,.T.);
#68=ORIENTED_EDGE('',*,*,#87,.T.);
#69=ORIENTED_EDGE('',*,*,#86,.T.);
#70=ORIENTED_EDGE('',*,*,#85,.T.);
#71=ORIENTED_EDGE('',*,*,#84,.T.);
#72=EDGE_CURVE('',#93,#94,#110,.T.);
#73=EDGE_CURVE('',#95,#93,#111,.T.);
#74=EDGE_CURVE('',#95,#96,#112,.T.);
#75=EDGE_CURVE('',#96,#94,#113,.T.);
#76=EDGE_CURVE('',#93,#97,#114,.T.);
#77=EDGE_CURVE('',#98,#97,#115,.T.);
#78=EDGE_CURVE('',#95,#98,#116,.T.);
#79=EDGE_CURVE('',#97,#99,#117,.T.);
#80=EDGE_CURVE('',#100,#99,#118,.T.);
#81=EDGE_CURVE('',#98,#100,#119,.T.);
#82=EDGE_CURVE('',#94,#99,#120,.T.);
#83=EDGE_CURVE('',#96,#100,#121,.T.);
#84=EDGE_CURVE('',#101,#101,#21,.T.);
#85=EDGE_CURVE('',#102,#102,#22,.T.);
#86=EDGE_CURVE('',#103,#103,#23,.T.);
#87=EDGE_CURVE('',#104,#104,#24,.T.);
#88=EDGE_CURVE('',#105,#105,#25,.T.);
#89=EDGE_CURVE('',#106,#106,#26,.T.);
#90=EDGE_CURVE('',#107,#107,#27,.T.);
#91=EDGE_CURVE('',#108,#108,#28,.T.);
#92=EDGE_CURVE('',#109,#109,#29,.T.);
#93=VERTEX_POINT('',#305);
#94=VERTEX_POINT('',#306);
#95=VERTEX_POINT('',#308);
#96=VERTEX_POINT('',#310);
#97=VERTEX_POINT('',#314);
#98=VERTEX_POINT('',#316);
#99=VERTEX_POINT('',#320);
#100=VERTEX_POINT('',#322);
#101=VERTEX_POINT('',#329);
#102=VERTEX_POINT('',#331);
#103=VERTEX_POINT('',#333);
#104=VERTEX_POINT('',#335);
#105=VERTEX_POINT('',#337);
#106=VERTEX_POINT('',#339);
#107=VERTEX_POINT('',#341);
#108=VERTEX_POINT('',#343);
#109=VERTEX_POINT('',#345);
#110=LINE('',#304,#122);
#111=LINE('',#307,#123);
#112=LINE('',#309,#124);
#113=LINE('',#311,#125);
#114=LINE('',#313,#126);
#115=LINE('',#315,#127);
#116=LINE('',#317,#128);
#117=LINE('',#319,#129);
#118=LINE('',#321,#130);
#119=LINE('',#323,#131);
#120=LINE('',#325,#132);
#121=LINE('',#326,#133);
#122=VECTOR('',#244,1.);
#123=VECTOR('',#245,1.);
#124=VECTOR('',#246,1.);
#125=VECTOR('',#247,1.);
#126=VECTOR('',#250,1.);
#127=VECTOR('',#251,1.);
#128=VECTOR('',#252,1.);
#129=VECTOR('',#255,1.);
#130=VECTOR('',#256,1.);
#131=VECTOR('',#257,1.);
#132=VECTOR('',#260,1.);
#133=VECTOR('',#261,1.);
#134=EDGE_LOOP('',(#30,#31,#32,#33));
#135=EDGE_LOOP('',(#34,#35,#36,#37));
#136=EDGE_LOOP('',(#38,#39,#40,#41));
#137=EDGE_LOOP('',(#42,#43,#44,#45));
#138=EDGE_LOOP('',(#46));
#139=EDGE_LOOP('',(#47));
#140=EDGE_LOOP('',(#48));
#141=EDGE_LOOP('',(#49));
#142=EDGE_LOOP('',(#50));
#143=EDGE_LOOP('',(#51));
#144=EDGE_LOOP('',(#52));
#145=EDGE_LOOP('',(#53));
#146=EDGE_LOOP('',(#54));
#147=EDGE_LOOP('',(#55,#56,#57,#58));
#148=EDGE_LOOP('',(#59,#60,#61,#62));
#149=EDGE_LOOP('',(#63));
#150=EDGE_LOOP('',(#64));
#151=EDGE_LOOP('',(#65));
#152=EDGE_LOOP('',(#66));
#153=EDGE_LOOP('',(#67));
#154=EDGE_LOOP('',(#68));
#155=EDGE_LOOP('',(#69));
#156=EDGE_LOOP('',(#70));
#157=EDGE_LOOP('',(#71));
#158=FACE_BOUND('',#134,.T.);
#159=FACE_BOUND('',#135,.T.);
#160=FACE_BOUND('',#136,.T.);
#161=FACE_BOUND('',#137,.T.);
#162=FACE_BOUND('',#138,.T.);
#163=FACE_BOUND('',#139,.T.);
#164=FACE_BOUND('',#140,.T.);
#165=FACE_BOUND('',#141,.T.);
#166=FACE_BOUND('',#142,.T.);
#167=FACE_BOUND('',#143,.T.);
#168=FACE_BOUND('',#144,.T.);
#169=FACE_BOUND('',#145,.T.);
#170=FACE_BOUND('',#146,.T.);
#171=FACE_BOUND('',#147,.T.);
#172=FACE_BOUND('',#148,.T.);
#173=FACE_BOUND('',#149,.T.);
#174=FACE_BOUND('',#150,.T.);
#175=FACE_BOUND('',#151,.T.);
#176=FACE_BOUND('',#152,.T.);
#177=FACE_BOUND('',#153,.T.);
#178=FACE_BOUND('',#154,.T.);
#179=FACE_BOUND('',#155,.T.);
#180=FACE_BOUND('',#156,.T.);
#181=FACE_BOUND('',#157,.T.);
#182=PLANE('',#216);
#183=PLANE('',#217);
#184=PLANE('',#218);
#185=PLANE('',#219);
#186=PLANE('',#220);
#187=PLANE('',#230);
#188=ADVANCED_FACE('',(#158),#182,.T.);
#189=ADVANCED_FACE('',(#159),#183,.F.);
#190=ADVANCED_FACE('',(#160),#184,.F.);
#191=ADVANCED_FACE('',(#161),#185,.T.);
#192=ADVANCED_FACE('',(#162,#163,#164,#165,#166,#167,#168,#169,#170,#171),
#186,.T.);
#193=ADVANCED_FACE('',(#172),#187,.F.);
#194=ADVANCED_FACE('',(#173),#12,.F.);
#195=ADVANCED_FACE('',(#174),#13,.F.);
#196=ADVANCED_FACE('',(#175),#14,.F.);
#197=ADVANCED_FACE('',(#176),#15,.F.);
#198=ADVANCED_FACE('',(#177),#16,.F.);
#199=ADVANCED_FACE('',(#178),#17,.F.);
#200=ADVANCED_FACE('',(#179),#18,.F.);
#201=ADVANCED_FACE('',(#180),#19,.F.);
#202=ADVANCED_FACE('',(#181),#20,.F.);
#203=CLOSED_SHELL('',(#188,#189,#190,#191,#192,#193,#194,#195,#196,#197,
#198,#199,#200,#201,#202));
#204=STYLED_ITEM('',(#205),#212);
#205=PRESENTATION_STYLE_ASSIGNMENT((#206));
#206=SURFACE_STYLE_USAGE(.BOTH.,#207);
#207=SURFACE_SIDE_STYLE('',(#208));
#208=SURFACE_STYLE_FILL_AREA(#209);
#209=FILL_AREA_STYLE('',(#210));
#210=FILL_AREA_STYLE_COLOUR('',#211);
#211=COLOUR_RGB('',0.8,0.8,0.8);
#212=MANIFOLD_SOLID_BREP('Board 30 mm',#203);
#213=SHAPE_DEFINITION_REPRESENTATION(#362,#214);
#214=SHAPE_REPRESENTATION('Board 30 mm',(#215),#357);
#215=AXIS2_PLACEMENT_3D('',#302,#240,#241);
#216=AXIS2_PLACEMENT_3D('',#303,#242,#243);
#217=AXIS2_PLACEMENT_3D('',#312,#248,#249);
#218=AXIS2_PLACEMENT_3D('',#318,#253,#254);
#219=AXIS2_PLACEMENT_3D('',#324,#258,#259);
#220=AXIS2_PLACEMENT_3D('',#327,#262,#263);
#221=AXIS2_PLACEMENT_3D('',#328,#264,#265);
#222=AXIS2_PLACEMENT_3D('',#330,#266,#267);
#223=AXIS2_PLACEMENT_3D('',#332,#268,#269);
#224=AXIS2_PLACEMENT_3D('',#334,#270,#271);
#225=AXIS2_PLACEMENT_3D('',#336,#272,#273);
#226=AXIS2_PLACEMENT_3D('',#338,#274,#275);
#227=AXIS2_PLACEMENT_3D('',#340,#276,#277);
#228=AXIS2_PLACEMENT_3D('',#342,#278,#279);
#229=AXIS2_PLACEMENT_3D('',#344,#280,#281);
#230=AXIS2_PLACEMENT_3D('',#346,#282,#283);
#231=AXIS2_PLACEMENT_3D('',#347,#284,#285);
#232=AXIS2_PLACEMENT_3D('',#348,#286,#287);
#233=AXIS2_PLACEMENT_3D('',#349,#288,#289);
#234=AXIS2_PLACEMENT_3D('',#350,#290,#291);
#235=AXIS2_PLACEMENT_3D('',#351,#292,#293);
#236=AXIS2_PLACEMENT_3D('',#352,#294,#295);
#237=AXIS2_PLACEMENT_3D('',#353,#296,#297);
#238=AXIS2_PLACEMENT_3D('',#354,#298,#299);
#239=AXIS2_PLACEMENT_3D('',#355,#300,#301);
#240=DIRECTION('',(0.,0.,1.));
#241=DIRECTION('',(1.,0.,0.));
#242=DIRECTION('',(1.,0.,0.));
#243=DIRECTION('',(0.,0.,-1.));
#244=DIRECTION('',(0.,-1.,0.));
#245=DIRECTION('',(0.,0.,-1.));
#246=DIRECTION('',(0.,-1.,0.));
#247=DIRECTION('',(0.,0.,-1.));
#248=DIRECTION('',(0.,-1.,0.));
#249=DIRECTION('',(0.,0.,-1.));
#250=DIRECTION('',(-1.,0.,0.));
#251=DIRECTION('',(0.,0.,-1.));
#252=DIRECTION('',(-1.,0.,0.));
#253=DIRECTION('',(1.,0.,0.));
#254=DIRECTION('',(0.,0.,-1.));
#255=DIRECTION('',(0.,-1.,0.));
#256=DIRECTION('',(0.,0.,-1.));
#257=DIRECTION('',(0.,-1.,0.));
#258=DIRECTION('',(0.,-1.,0.));
#259=DIRECTION('',(0.,0.,-1.));
#260=DIRECTION('',(-1.,0.,0.));
#261=DIRECTION('',(-1.,0.,0.));
#262=DIRECTION('',(0.,0.,1.));
#263=DIRECTION('',(1.,0.,0.));
#264=DIRECTION('',(0.,0.,1.));
#265=DIRECTION('',(1.,0.,0.));
#266=DIRECTION('',(0.,0.,1.));
#267=DIRECTION('',(1.,0.,0.));
#268=DIRECTION('',(0.,0.,1.));
#269=DIRECTION('',(1.,0.,0.));
#270=DIRECTION('',(0.,0.,1.));
#271=DIRECTION('',(1.,0.,0.));
#272=DIRECTION('',(0.,0.,1.));
#273=DIRECTION('',(1.,0.,0.));
#274=DIRECTION('',(0.,0.,1.));
#275=DIRECTION('',(1.,0.,0.));
#276=DIRECTION('',(0.,0.,1.));
#277=DIRECTION('',(1.,0.,0.));
#278=DIRECTION('',(0.,0.,1.));
#279=DIRECTION('',(1.,0.,0.));
#280=DIRECTION('',(0.,0.,1.));
#281=DIRECTION('',(1.,0.,0.));
#282=DIRECTION('',(0.,0.,1.));
#283=DIRECTION('',(1.,0.,0.));
#284=DIRECTION('',(1.,0.,0.));
#285=DIRECTION('',(0.,-1.,0.));
#286=DIRECTION('',(1.,0.,0.));
#287=DIRECTION('',(0.,-1.,0.));
#288=DIRECTION('',(1.,0.,0.));
#289=DIRECTION('',(0.,-1.,0.));
#290=DIRECTION('',(1.,0.,0.));
#291=DIRECTION('',(0.,-1.,0.));
#292=DIRECTION('',(1.,0.,0.));
#293=DIRECTION('',(0.,-1.,0.));
#294=DIRECTION('',(1.,0.,0.));
#295=DIRECTION('',(0.,-1.,0.));
#296=DIRECTION('',(1.,0.,0.));
#297=DIRECTION('',(0.,-1.,0.));
#298=DIRECTION('',(1.,0.,0.));
#299=DIRECTION('',(0.,-1.,0.));
#300=DIRECTION('',(1.,0.,0.));
#301=DIRECTION('',(0.,-1.,0.));
#302=CARTESIAN_POINT('',(0.,0.,0.));
#303=CARTESIAN_POINT('',(0.0381,0.,0.02921));
#304=CARTESIAN_POINT('',(0.0381,0.,0.));
#305=CARTESIAN_POINT('',(0.0381,0.0381,0.));
#306=CARTESIAN_POINT('',(0.0381,-0.0381,0.));
#307=CARTESIAN_POINT('',(0.0381,0.0381,0.02921));
#308=CARTESIAN_POINT('',(0.0381,0.0381,0.02921));
#309=CARTESIAN_POINT('',(0.0381,0.,0.02921));
#310=CARTESIAN_POINT('',(0.0381,-0.0381,0.02921));
#311=CARTESIAN_POINT('',(0.0381,-0.0381,0.02921));
#312=CARTESIAN_POINT('',(0.,0.0381,0.02921));
#313=CARTESIAN_POINT('',(0.,0.0381,0.));
#314=CARTESIAN_POINT('',(-0.0381,0.0381,0.));
#315=CARTESIAN_POINT('',(-0.0381,0.0381,0.02921));
#316=CARTESIAN_POINT('',(-0.0381,0.0381,0.02921));
#317=CARTESIAN_POINT('',(0.,0.0381,0.02921));
#318=CARTESIAN_POINT('',(-0.0381,0.,0.02921));
#319=CARTESIAN_POINT('',(-0.0381,0.,0.));
#320=CARTESIAN_POINT('',(-0.0381,-0.0381,0.));
#321=CARTESIAN_POINT('',(-0.0381,-0.0381,0.02921));
#322=CARTESIAN_POINT('',(-0.0381,-0.0381,0.02921));
#323=CARTESIAN_POINT('',(-0.0381,0.,0.02921));
#324=CARTESIAN_POINT('',(0.,-0.0381,0.02921));
#325=CARTESIAN_POINT('',(0.,-0.0381,0.));
#326=CARTESIAN_POINT('',(0.,-0.0381,0.02921));
#327=CARTESIAN_POINT('',(0.,0.,0.02921));
#328=CARTESIAN_POINT('',(0.0254,-0.0254,0.02921));
#329=CARTESIAN_POINT('',(0.0324,-0.0254,0.02921));
#330=CARTESIAN_POINT('',(6.07153216591882E-18,-0.0254,0.02921));
#331=CARTESIAN_POINT('',(0.00700000000000001,-0.0254,0.02921));
#332=CARTESIAN_POINT('',(-0.0254,-0.0254,0.02921));
#333=CARTESIAN_POINT('',(-0.0184,-0.0254,0.02921));
#334=CARTESIAN_POINT('',(0.0254,4.28626379701574E-19,0.02921));
#335=CARTESIAN_POINT('',(0.0324,4.28626379701574E-19,0.02921));
#336=CARTESIAN_POINT('',(3.46944695195361E-18,4.28626379701574E-19,0.02921));
#337=CARTESIAN_POINT('',(0.007,4.28626379701574E-19,0.02921));
#338=CARTESIAN_POINT('',(-0.0254,4.28626379701574E-19,0.02921));
#339=CARTESIAN_POINT('',(-0.0184,4.28626379701574E-19,0.02921));
#340=CARTESIAN_POINT('',(0.0254,0.0254,0.02921));
#341=CARTESIAN_POINT('',(0.0324,0.0254,0.02921));
#342=CARTESIAN_POINT('',(0.,0.0254,0.02921));
#343=CARTESIAN_POINT('',(0.007,0.0254,0.02921));
#344=CARTESIAN_POINT('',(-0.0254,0.0254,0.02921));
#345=CARTESIAN_POINT('',(-0.0184,0.0254,0.02921));
#346=CARTESIAN_POINT('',(0.,0.,0.));
#347=CARTESIAN_POINT('',(-0.0254,0.0254,0.02921));
#348=CARTESIAN_POINT('',(0.,0.0254,0.02921));
#349=CARTESIAN_POINT('',(0.0254,0.0254,0.02921));
#350=CARTESIAN_POINT('',(-0.0254,4.28626379701574E-19,0.02921));
#351=CARTESIAN_POINT('',(3.46944695195361E-18,4.28626379701574E-19,0.02921));
#352=CARTESIAN_POINT('',(0.0254,4.28626379701574E-19,0.02921));
#353=CARTESIAN_POINT('',(-0.0254,-0.0254,0.02921));
#354=CARTESIAN_POINT('',(6.07153216591882E-18,-0.0254,0.02921));
#355=CARTESIAN_POINT('',(0.0254,-0.0254,0.02921));
#356=MECHANICAL_DESIGN_GEOMETRIC_PRESENTATION_REPRESENTATION('',(#204),
#357);
#357=(
GEOMETRIC_REPRESENTATION_CONTEXT(3)
GLOBAL_UNCERTAINTY_ASSIGNED_CONTEXT((#358))
GLOBAL_UNIT_ASSIGNED_CONTEXT((#361,#360,#359))
REPRESENTATION_CONTEXT('Board 30 mm','TOP_LEVEL_ASSEMBLY_PART')
);
#358=UNCERTAINTY_MEASURE_WITH_UNIT(LENGTH_MEASURE(5.E-6),#361,
'DISTANCE_ACCURACY_VALUE','Maximum Tolerance applied to model');
#359=(
NAMED_UNIT(*)
SI_UNIT($,.STERADIAN.)
SOLID_ANGLE_UNIT()
);
#360=(
NAMED_UNIT(*)
PLANE_ANGLE_UNIT()
SI_UNIT($,.RADIAN.)
);
#361=(
LENGTH_UNIT()
NAMED_UNIT(*)
SI_UNIT($,.METRE.)
);
#362=PRODUCT_DEFINITION_SHAPE('','',#363);
#363=PRODUCT_DEFINITION('','',#365,#364);
#364=PRODUCT_DEFINITION_CONTEXT('',#371,'design');
#365=PRODUCT_DEFINITION_FORMATION_WITH_SPECIFIED_SOURCE('','',#367,
 .NOT_KNOWN.);
#366=PRODUCT_RELATED_PRODUCT_CATEGORY('','',(#367));
#367=PRODUCT('Board 30 mm','Board 30 mm','Board 30 mm',(#369));
#368=PRODUCT_CATEGORY('','');
#369=PRODUCT_CONTEXT('',#371,'mechanical');
#370=APPLICATION_PROTOCOL_DEFINITION('international standard',
'ap242_managed_model_based_3d_engineering',2011,#371);
#371=APPLICATION_CONTEXT('managed model based 3d engineering');
ENDSEC;
END-ISO-10303-21;
