ISO-10303-21;
HEADER;
/* Generated by software containing ST-Developer
 * from STEP Tools, Inc. (www.steptools.com) 
 */

FILE_DESCRIPTION(
/* description */ ('',
'CAx-IF Rec.Pracs.---Representation and Presentation of Product Manufa
cturing Information (PMI)---4.0---2014-10-13'),
/* implementation_level */ '2;1');

FILE_NAME(
/* name */ 'LED-Touch-Aluminum.step',
/* time_stamp */ '2025-02-11T21:53:13+08:00',
/* author */ (''),
/* organization */ (''),
/* preprocessor_version */ 'ST-DEVELOPER v20',
/* originating_system */ 'Autodesk Translation Framework v13.20.0.188',

/* authorisation */ '');

FILE_SCHEMA (('AP242_MANAGED_MODEL_BASED_3D_ENGINEERING_MIM_LF { 1 0 10303 442 1 1 4 }'));
ENDSEC;

DATA;
#10=MECHANICAL_DESIGN_GEOMETRIC_PRESENTATION_REPRESENTATION('',(#14,#15),
#316);
#11=SHAPE_REPRESENTATION_RELATIONSHIP('SRR','None',#323,#12);
#12=ADVANCED_BREP_SHAPE_REPRESENTATION('',(#13),#315);
#13=MANIFOLD_SOLID_BREP('Body1',#192);
#14=STYLED_ITEM('',(#333),#191);
#15=STYLED_ITEM('',(#332),#13);
#16=FACE_OUTER_BOUND('',#26,.T.);
#17=FACE_OUTER_BOUND('',#27,.T.);
#18=FACE_OUTER_BOUND('',#28,.T.);
#19=FACE_OUTER_BOUND('',#29,.T.);
#20=FACE_OUTER_BOUND('',#30,.T.);
#21=FACE_OUTER_BOUND('',#31,.T.);
#22=FACE_OUTER_BOUND('',#32,.T.);
#23=FACE_OUTER_BOUND('',#33,.T.);
#24=FACE_OUTER_BOUND('',#34,.T.);
#25=FACE_OUTER_BOUND('',#35,.T.);
#26=EDGE_LOOP('',(#124,#125,#126,#127));
#27=EDGE_LOOP('',(#128,#129,#130,#131));
#28=EDGE_LOOP('',(#132,#133,#134,#135));
#29=EDGE_LOOP('',(#136,#137,#138,#139));
#30=EDGE_LOOP('',(#140,#141,#142,#143));
#31=EDGE_LOOP('',(#144,#145,#146,#147,#148,#149,#150,#151));
#32=EDGE_LOOP('',(#152,#153,#154,#155));
#33=EDGE_LOOP('',(#156,#157,#158,#159,#160,#161,#162,#163));
#34=EDGE_LOOP('',(#164,#165,#166,#167));
#35=EDGE_LOOP('',(#168,#169,#170,#171));
#36=LINE('',#266,#60);
#37=LINE('',#268,#61);
#38=LINE('',#270,#62);
#39=LINE('',#271,#63);
#40=LINE('',#274,#64);
#41=LINE('',#276,#65);
#42=LINE('',#277,#66);
#43=LINE('',#281,#67);
#44=LINE('',#283,#68);
#45=LINE('',#285,#69);
#46=LINE('',#286,#70);
#47=LINE('',#290,#71);
#48=LINE('',#291,#72);
#49=LINE('',#292,#73);
#50=LINE('',#295,#74);
#51=LINE('',#297,#75);
#52=LINE('',#298,#76);
#53=LINE('',#300,#77);
#54=LINE('',#302,#78);
#55=LINE('',#303,#79);
#56=LINE('',#306,#80);
#57=LINE('',#307,#81);
#58=LINE('',#309,#82);
#59=LINE('',#310,#83);
#60=VECTOR('',#220,10.);
#61=VECTOR('',#221,10.);
#62=VECTOR('',#222,10.);
#63=VECTOR('',#223,10.);
#64=VECTOR('',#226,10.);
#65=VECTOR('',#227,10.);
#66=VECTOR('',#228,10.);
#67=VECTOR('',#231,10.);
#68=VECTOR('',#232,10.);
#69=VECTOR('',#233,10.);
#70=VECTOR('',#234,10.);
#71=VECTOR('',#237,10.);
#72=VECTOR('',#238,10.);
#73=VECTOR('',#239,10.);
#74=VECTOR('',#242,10.);
#75=VECTOR('',#243,10.);
#76=VECTOR('',#244,10.);
#77=VECTOR('',#247,10.);
#78=VECTOR('',#248,10.);
#79=VECTOR('',#249,10.);
#80=VECTOR('',#252,10.);
#81=VECTOR('',#253,10.);
#82=VECTOR('',#256,10.);
#83=VECTOR('',#257,10.);
#84=VERTEX_POINT('',#264);
#85=VERTEX_POINT('',#265);
#86=VERTEX_POINT('',#267);
#87=VERTEX_POINT('',#269);
#88=VERTEX_POINT('',#273);
#89=VERTEX_POINT('',#275);
#90=VERTEX_POINT('',#279);
#91=VERTEX_POINT('',#280);
#92=VERTEX_POINT('',#282);
#93=VERTEX_POINT('',#284);
#94=VERTEX_POINT('',#288);
#95=VERTEX_POINT('',#289);
#96=VERTEX_POINT('',#294);
#97=VERTEX_POINT('',#296);
#98=VERTEX_POINT('',#301);
#99=VERTEX_POINT('',#305);
#100=EDGE_CURVE('',#84,#85,#36,.T.);
#101=EDGE_CURVE('',#86,#84,#37,.T.);
#102=EDGE_CURVE('',#86,#87,#38,.T.);
#103=EDGE_CURVE('',#85,#87,#39,.T.);
#104=EDGE_CURVE('',#88,#86,#40,.T.);
#105=EDGE_CURVE('',#89,#88,#41,.T.);
#106=EDGE_CURVE('',#87,#89,#42,.T.);
#107=EDGE_CURVE('',#90,#91,#43,.T.);
#108=EDGE_CURVE('',#92,#90,#44,.T.);
#109=EDGE_CURVE('',#92,#93,#45,.T.);
#110=EDGE_CURVE('',#91,#93,#46,.T.);
#111=EDGE_CURVE('',#94,#95,#47,.T.);
#112=EDGE_CURVE('',#93,#94,#48,.T.);
#113=EDGE_CURVE('',#95,#92,#49,.T.);
#114=EDGE_CURVE('',#88,#96,#50,.T.);
#115=EDGE_CURVE('',#97,#96,#51,.T.);
#116=EDGE_CURVE('',#89,#97,#52,.T.);
#117=EDGE_CURVE('',#91,#84,#53,.T.);
#118=EDGE_CURVE('',#94,#98,#54,.T.);
#119=EDGE_CURVE('',#96,#98,#55,.T.);
#120=EDGE_CURVE('',#95,#99,#56,.T.);
#121=EDGE_CURVE('',#98,#99,#57,.T.);
#122=EDGE_CURVE('',#99,#97,#58,.T.);
#123=EDGE_CURVE('',#85,#90,#59,.T.);
#124=ORIENTED_EDGE('',*,*,#100,.F.);
#125=ORIENTED_EDGE('',*,*,#101,.F.);
#126=ORIENTED_EDGE('',*,*,#102,.T.);
#127=ORIENTED_EDGE('',*,*,#103,.F.);
#128=ORIENTED_EDGE('',*,*,#104,.F.);
#129=ORIENTED_EDGE('',*,*,#105,.F.);
#130=ORIENTED_EDGE('',*,*,#106,.F.);
#131=ORIENTED_EDGE('',*,*,#102,.F.);
#132=ORIENTED_EDGE('',*,*,#107,.F.);
#133=ORIENTED_EDGE('',*,*,#108,.F.);
#134=ORIENTED_EDGE('',*,*,#109,.T.);
#135=ORIENTED_EDGE('',*,*,#110,.F.);
#136=ORIENTED_EDGE('',*,*,#111,.F.);
#137=ORIENTED_EDGE('',*,*,#112,.F.);
#138=ORIENTED_EDGE('',*,*,#109,.F.);
#139=ORIENTED_EDGE('',*,*,#113,.F.);
#140=ORIENTED_EDGE('',*,*,#105,.T.);
#141=ORIENTED_EDGE('',*,*,#114,.T.);
#142=ORIENTED_EDGE('',*,*,#115,.F.);
#143=ORIENTED_EDGE('',*,*,#116,.F.);
#144=ORIENTED_EDGE('',*,*,#104,.T.);
#145=ORIENTED_EDGE('',*,*,#101,.T.);
#146=ORIENTED_EDGE('',*,*,#117,.F.);
#147=ORIENTED_EDGE('',*,*,#110,.T.);
#148=ORIENTED_EDGE('',*,*,#112,.T.);
#149=ORIENTED_EDGE('',*,*,#118,.T.);
#150=ORIENTED_EDGE('',*,*,#119,.F.);
#151=ORIENTED_EDGE('',*,*,#114,.F.);
#152=ORIENTED_EDGE('',*,*,#111,.T.);
#153=ORIENTED_EDGE('',*,*,#120,.T.);
#154=ORIENTED_EDGE('',*,*,#121,.F.);
#155=ORIENTED_EDGE('',*,*,#118,.F.);
#156=ORIENTED_EDGE('',*,*,#106,.T.);
#157=ORIENTED_EDGE('',*,*,#116,.T.);
#158=ORIENTED_EDGE('',*,*,#122,.F.);
#159=ORIENTED_EDGE('',*,*,#120,.F.);
#160=ORIENTED_EDGE('',*,*,#113,.T.);
#161=ORIENTED_EDGE('',*,*,#108,.T.);
#162=ORIENTED_EDGE('',*,*,#123,.F.);
#163=ORIENTED_EDGE('',*,*,#103,.T.);
#164=ORIENTED_EDGE('',*,*,#100,.T.);
#165=ORIENTED_EDGE('',*,*,#123,.T.);
#166=ORIENTED_EDGE('',*,*,#107,.T.);
#167=ORIENTED_EDGE('',*,*,#117,.T.);
#168=ORIENTED_EDGE('',*,*,#122,.T.);
#169=ORIENTED_EDGE('',*,*,#115,.T.);
#170=ORIENTED_EDGE('',*,*,#119,.T.);
#171=ORIENTED_EDGE('',*,*,#121,.T.);
#172=PLANE('',#206);
#173=PLANE('',#207);
#174=PLANE('',#208);
#175=PLANE('',#209);
#176=PLANE('',#210);
#177=PLANE('',#211);
#178=PLANE('',#212);
#179=PLANE('',#213);
#180=PLANE('',#214);
#181=PLANE('',#215);
#182=ADVANCED_FACE('',(#16),#172,.F.);
#183=ADVANCED_FACE('',(#17),#173,.F.);
#184=ADVANCED_FACE('',(#18),#174,.F.);
#185=ADVANCED_FACE('',(#19),#175,.F.);
#186=ADVANCED_FACE('',(#20),#176,.T.);
#187=ADVANCED_FACE('',(#21),#177,.T.);
#188=ADVANCED_FACE('',(#22),#178,.T.);
#189=ADVANCED_FACE('',(#23),#179,.T.);
#190=ADVANCED_FACE('',(#24),#180,.T.);
#191=ADVANCED_FACE('',(#25),#181,.T.);
#192=CLOSED_SHELL('',(#182,#183,#184,#185,#186,#187,#188,#189,#190,#191));
#193=DERIVED_UNIT_ELEMENT(#195,1.);
#194=DERIVED_UNIT_ELEMENT(#318,-3.);
#195=(
MASS_UNIT()
NAMED_UNIT(*)
SI_UNIT(.KILO.,.GRAM.)
);
#196=DERIVED_UNIT((#193,#194));
#197=MEASURE_REPRESENTATION_ITEM('density measure',
POSITIVE_RATIO_MEASURE(7850.),#196);
#198=PROPERTY_DEFINITION_REPRESENTATION(#203,#200);
#199=PROPERTY_DEFINITION_REPRESENTATION(#204,#201);
#200=REPRESENTATION('material name',(#202),#315);
#201=REPRESENTATION('density',(#197),#315);
#202=DESCRIPTIVE_REPRESENTATION_ITEM('Steel','Steel');
#203=PROPERTY_DEFINITION('material property','material name',#325);
#204=PROPERTY_DEFINITION('material property','density of part',#325);
#205=AXIS2_PLACEMENT_3D('',#262,#216,#217);
#206=AXIS2_PLACEMENT_3D('',#263,#218,#219);
#207=AXIS2_PLACEMENT_3D('',#272,#224,#225);
#208=AXIS2_PLACEMENT_3D('',#278,#229,#230);
#209=AXIS2_PLACEMENT_3D('',#287,#235,#236);
#210=AXIS2_PLACEMENT_3D('',#293,#240,#241);
#211=AXIS2_PLACEMENT_3D('',#299,#245,#246);
#212=AXIS2_PLACEMENT_3D('',#304,#250,#251);
#213=AXIS2_PLACEMENT_3D('',#308,#254,#255);
#214=AXIS2_PLACEMENT_3D('',#311,#258,#259);
#215=AXIS2_PLACEMENT_3D('',#312,#260,#261);
#216=DIRECTION('axis',(0.,0.,1.));
#217=DIRECTION('refdir',(1.,0.,0.));
#218=DIRECTION('center_axis',(0.,1.,0.));
#219=DIRECTION('ref_axis',(0.,0.,-1.));
#220=DIRECTION('',(0.,0.,-1.));
#221=DIRECTION('',(1.,0.,0.));
#222=DIRECTION('',(0.,0.,-1.));
#223=DIRECTION('',(-1.,0.,0.));
#224=DIRECTION('center_axis',(-1.,0.,0.));
#225=DIRECTION('ref_axis',(0.,0.,1.));
#226=DIRECTION('',(0.,1.,0.));
#227=DIRECTION('',(0.,0.,1.));
#228=DIRECTION('',(0.,-1.,0.));
#229=DIRECTION('center_axis',(0.,-1.,0.));
#230=DIRECTION('ref_axis',(0.,0.,1.));
#231=DIRECTION('',(0.,0.,1.));
#232=DIRECTION('',(1.,0.,0.));
#233=DIRECTION('',(0.,0.,1.));
#234=DIRECTION('',(-1.,0.,0.));
#235=DIRECTION('center_axis',(-1.,0.,0.));
#236=DIRECTION('ref_axis',(0.,0.,1.));
#237=DIRECTION('',(0.,0.,-1.));
#238=DIRECTION('',(0.,1.,0.));
#239=DIRECTION('',(0.,-1.,0.));
#240=DIRECTION('center_axis',(0.,-1.,0.));
#241=DIRECTION('ref_axis',(0.,0.,1.));
#242=DIRECTION('',(-1.,0.,0.));
#243=DIRECTION('',(0.,0.,1.));
#244=DIRECTION('',(-1.,0.,0.));
#245=DIRECTION('center_axis',(0.,0.,1.));
#246=DIRECTION('ref_axis',(0.,1.,0.));
#247=DIRECTION('',(0.,-1.,0.));
#248=DIRECTION('',(-1.,0.,0.));
#249=DIRECTION('',(0.,1.,0.));
#250=DIRECTION('center_axis',(0.,1.,0.));
#251=DIRECTION('ref_axis',(0.,0.,-1.));
#252=DIRECTION('',(-1.,0.,0.));
#253=DIRECTION('',(0.,0.,-1.));
#254=DIRECTION('center_axis',(0.,0.,-1.));
#255=DIRECTION('ref_axis',(0.,-1.,0.));
#256=DIRECTION('',(0.,-1.,0.));
#257=DIRECTION('',(0.,1.,0.));
#258=DIRECTION('center_axis',(1.,0.,0.));
#259=DIRECTION('ref_axis',(0.,0.,-1.));
#260=DIRECTION('center_axis',(-1.,0.,0.));
#261=DIRECTION('ref_axis',(0.,0.,1.));
#262=CARTESIAN_POINT('',(0.,0.,0.));
#263=CARTESIAN_POINT('Origin',(0.,-13.9586318641892,81.6088160370142));
#264=CARTESIAN_POINT('',(0.,-13.9586318641892,81.6088160370142));
#265=CARTESIAN_POINT('',(0.,-13.9586318641892,61.9088160370142));
#266=CARTESIAN_POINT('',(0.,-13.9586318641892,76.6838160370142));
#267=CARTESIAN_POINT('',(-2.5,-13.9586318641892,81.6088160370142));
#268=CARTESIAN_POINT('',(0.,-13.9586318641892,81.6088160370142));
#269=CARTESIAN_POINT('',(-2.5,-13.9586318641892,61.9088160370142));
#270=CARTESIAN_POINT('',(-2.5,-13.9586318641892,81.9088160370142));
#271=CARTESIAN_POINT('',(0.,-13.9586318641892,61.9088160370142));
#272=CARTESIAN_POINT('Origin',(-2.5,-15.6586318641892,71.7588160370142));
#273=CARTESIAN_POINT('',(-2.5,-17.3586318641892,81.6088160370142));
#274=CARTESIAN_POINT('',(-2.5,-16.5086318641892,81.6088160370142));
#275=CARTESIAN_POINT('',(-2.5,-17.3586318641892,61.9088160370142));
#276=CARTESIAN_POINT('',(-2.5,-17.3586318641892,66.8338160370142));
#277=CARTESIAN_POINT('',(-2.5,-9.25863186418924,61.9088160370142));
#278=CARTESIAN_POINT('Origin',(0.,-8.85863186418924,61.9088160370142));
#279=CARTESIAN_POINT('',(0.,-8.85863186418924,61.9088160370142));
#280=CARTESIAN_POINT('',(0.,-8.85863186418924,81.6088160370142));
#281=CARTESIAN_POINT('',(0.,-8.85863186418924,66.8338160370142));
#282=CARTESIAN_POINT('',(-2.5,-8.85863186418924,61.9088160370142));
#283=CARTESIAN_POINT('',(0.,-8.85863186418924,61.9088160370142));
#284=CARTESIAN_POINT('',(-2.5,-8.85863186418924,81.6088160370142));
#285=CARTESIAN_POINT('',(-2.5,-8.85863186418924,61.9088160370142));
#286=CARTESIAN_POINT('',(0.,-8.85863186418924,81.6088160370142));
#287=CARTESIAN_POINT('Origin',(-2.5,-5.85863186418924,71.7588160370142));
#288=CARTESIAN_POINT('',(-2.5,-2.85863186418924,81.6088160370142));
#289=CARTESIAN_POINT('',(-2.5,-2.85863186418924,61.9088160370142));
#290=CARTESIAN_POINT('',(-2.5,-2.85863186418924,76.6838160370142));
#291=CARTESIAN_POINT('',(-2.5,-11.6086318641892,81.6088160370142));
#292=CARTESIAN_POINT('',(-2.5,-4.35863186418924,61.9088160370142));
#293=CARTESIAN_POINT('Origin',(0.,-17.3586318641892,61.9088160370142));
#294=CARTESIAN_POINT('',(-5.,-17.3586318641892,81.6088160370142));
#295=CARTESIAN_POINT('',(0.,-17.3586318641892,81.6088160370142));
#296=CARTESIAN_POINT('',(-5.,-17.3586318641892,61.9088160370142));
#297=CARTESIAN_POINT('',(-5.,-17.3586318641892,81.6088160370142));
#298=CARTESIAN_POINT('',(0.,-17.3586318641892,61.9088160370142));
#299=CARTESIAN_POINT('Origin',(0.,-17.3586318641892,81.6088160370142));
#300=CARTESIAN_POINT('',(0.,-2.85863186418924,81.6088160370142));
#301=CARTESIAN_POINT('',(-5.,-2.85863186418924,81.6088160370142));
#302=CARTESIAN_POINT('',(0.,-2.85863186418924,81.6088160370142));
#303=CARTESIAN_POINT('',(-5.,-2.85863186418924,81.6088160370142));
#304=CARTESIAN_POINT('Origin',(0.,-2.85863186418924,81.6088160370142));
#305=CARTESIAN_POINT('',(-5.,-2.85863186418924,61.9088160370142));
#306=CARTESIAN_POINT('',(0.,-2.85863186418924,61.9088160370142));
#307=CARTESIAN_POINT('',(-5.,-2.85863186418924,61.9088160370142));
#308=CARTESIAN_POINT('Origin',(0.,-2.85863186418924,61.9088160370142));
#309=CARTESIAN_POINT('',(-5.,-13.9586318641892,61.9088160370142));
#310=CARTESIAN_POINT('',(0.,-13.9586318641892,61.9088160370142));
#311=CARTESIAN_POINT('Origin',(0.,-10.1086318641892,71.7588160370142));
#312=CARTESIAN_POINT('Origin',(-5.,-10.1086318641892,71.7588160370142));
#313=UNCERTAINTY_MEASURE_WITH_UNIT(LENGTH_MEASURE(0.01),#317,
'DISTANCE_ACCURACY_VALUE',
'Maximum model space distance between geometric entities at asserted c
onnectivities');
#314=UNCERTAINTY_MEASURE_WITH_UNIT(LENGTH_MEASURE(0.01),#317,
'DISTANCE_ACCURACY_VALUE',
'Maximum model space distance between geometric entities at asserted c
onnectivities');
#315=(
GEOMETRIC_REPRESENTATION_CONTEXT(3)
GLOBAL_UNCERTAINTY_ASSIGNED_CONTEXT((#313))
GLOBAL_UNIT_ASSIGNED_CONTEXT((#317,#319,#320))
REPRESENTATION_CONTEXT('','3D')
);
#316=(
GEOMETRIC_REPRESENTATION_CONTEXT(3)
GLOBAL_UNCERTAINTY_ASSIGNED_CONTEXT((#314))
GLOBAL_UNIT_ASSIGNED_CONTEXT((#317,#319,#320))
REPRESENTATION_CONTEXT('','3D')
);
#317=(
LENGTH_UNIT()
NAMED_UNIT(*)
SI_UNIT(.MILLI.,.METRE.)
);
#318=(
LENGTH_UNIT()
NAMED_UNIT(*)
SI_UNIT($,.METRE.)
);
#319=(
NAMED_UNIT(*)
PLANE_ANGLE_UNIT()
SI_UNIT($,.RADIAN.)
);
#320=(
NAMED_UNIT(*)
SI_UNIT($,.STERADIAN.)
SOLID_ANGLE_UNIT()
);
#321=SHAPE_DEFINITION_REPRESENTATION(#322,#323);
#322=PRODUCT_DEFINITION_SHAPE('',$,#325);
#323=SHAPE_REPRESENTATION('',(#205),#315);
#324=PRODUCT_DEFINITION_CONTEXT('part definition',#329,'design');
#325=PRODUCT_DEFINITION('LED-Touch-Aluminum','LED-Touch-Aluminum',#326,
#324);
#326=PRODUCT_DEFINITION_FORMATION('',$,#331);
#327=PRODUCT_RELATED_PRODUCT_CATEGORY('LED-Touch-Aluminum',
'LED-Touch-Aluminum',(#331));
#328=APPLICATION_PROTOCOL_DEFINITION('international standard',
'ap242_managed_model_based_3d_engineering',2011,#329);
#329=APPLICATION_CONTEXT('Managed model based 3d engineering');
#330=PRODUCT_CONTEXT('part definition',#329,'mechanical');
#331=PRODUCT('LED-Touch-Aluminum','LED-Touch-Aluminum',$,(#330));
#332=PRESENTATION_STYLE_ASSIGNMENT((#334));
#333=PRESENTATION_STYLE_ASSIGNMENT((#335));
#334=SURFACE_STYLE_USAGE(.BOTH.,#336);
#335=SURFACE_STYLE_USAGE(.BOTH.,#337);
#336=SURFACE_SIDE_STYLE('',(#338));
#337=SURFACE_SIDE_STYLE('',(#339));
#338=SURFACE_STYLE_FILL_AREA(#340);
#339=SURFACE_STYLE_FILL_AREA(#341);
#340=FILL_AREA_STYLE('Steel - Satin',(#342));
#341=FILL_AREA_STYLE('Aluminum - Polished',(#343));
#342=FILL_AREA_STYLE_COLOUR('Steel - Satin',#344);
#343=FILL_AREA_STYLE_COLOUR('Aluminum - Polished',#345);
#344=COLOUR_RGB('Steel - Satin',0.627450980392157,0.627450980392157,0.627450980392157);
#345=COLOUR_RGB('Aluminum - Polished',0.96078431372549,0.96078431372549,
0.964705882352941);
ENDSEC;
END-ISO-10303-21;
