0
SECTION
2
HEADER
9
$INSUNITS
70
4
9
$ACADVER
1
AC1014
9
$HANDSEED
5
FFFF
0
ENDSEC
0
SECTION
2
TABLES
0
TABLE
2
VPORT
5
8
100
AcDbSymbolTable
0
ENDTAB
0
TABLE
2
LTYPE
5
5
100
AcDbSymbolTable
0
LTYPE
5
14
100
AcDbSymbolTableRecord
100
AcDbLinetypeTableRecord
2
BYBLOCK
70
0
0
LTYPE
5
15
100
AcDbSymbolTableRecord
100
AcDbLinetypeTableRecord
2
BYLAYER
70
0
0
ENDTAB
0
TABLE
2
LAYER
5
2
100
AcDbSymbolTable
70
2
0
LAYER
5
50
100
AcDbSymbolTableRecord
100
AcDbLayerTableRecord
2
0
70
0
6
CONTINUOUS
0
ENDTAB
0
TABLE
2
STYLE
5
3
100
AcDbSymbolTable
70
1
0
STYLE
5
11
100
AcDbSymbolTableRecord
100
AcDbTextStyleTableRecord
2
STANDARD
70
0
0
ENDTAB
0
TABLE
2
VIEW
5
6
100
AcDbSymbolTable
70
0
0
ENDTAB
0
TABLE
2
UCS
5
7
100
AcDbSymbolTable
70
0
0
ENDTAB
0
TABLE
2
APPID
5
9
100
AcDbSymbolTable
70
2
0
APPID
5
12
100
AcDbSymbolTableRecord
100
AcDbRegAppTableRecord
2
ACAD
70
0
0
ENDTAB
0
TABLE
2
DIMSTYLE
5
A
100
AcDbSymbolTable
70
1
0
ENDTAB
0
TABLE
2
BLOCK_RECORD
5
1
100
AcDbSymbolTable
70
1
0
BLOCK_RECORD
5
1F
100
AcDbSymbolTableRecord
100
AcDbBlockTableRecord
2
*MODEL_SPACE
0
BLOCK_RECORD
5
1B
100
AcDbSymbolTableRecord
100
AcDbBlockTableRecord
2
*PAPER_SPACE
0
ENDTAB
0
ENDSEC
0
SECTION
2
BLOCKS
0
BLOCK
5
20
100
AcDbEntity
100
AcDbBlockBegin
2
*MODEL_SPACE
0
ENDBLK
5
21
100
AcDbEntity
100
AcDbBlockEnd
0
BLOCK
5
1C
100
AcDbEntity
100
AcDbBlockBegin
2
*PAPER_SPACE
0
ENDBLK
5
1D
100
AcDbEntity
100
AcDbBlockEnd
0
ENDSEC
0
SECTION
2
ENTITIES
0
CIRCLE
5
100
100
AcDbEntity
8
0
100
AcDbCircle
10
-28.050377355395607
20
-9.1077467581978198
30
0
40
1.0000000000000009
210
0
220
0
230
1
0
CIRCLE
5
101
100
AcDbEntity
8
0
100
AcDbCircle
10
-28.050377355395607
20
9.5249996215104993
30
0
40
22.5
210
0
220
-0
230
1
0
CIRCLE
5
102
100
AcDbEntity
8
0
100
AcDbCircle
10
-32.320752294837284
20
5.9689999848604103
30
0
40
1.0767201549120278
210
0
220
-0
230
1
0
LWPOLYLINE
5
103
100
AcDbEntity
8
0
100
AcDbPolyline
90
4
70
1
43
0.0
10
-40.637159924864079
20
2.653096962089172
42
0.10507988816061067
10
-36.039545494948769
20
4.2496321335605742
42
-1.1742449141810938
10
-34.808183076111341
20
2.3963166356097103
42
0.20608711712040431
10
-37.146751628695782
20
-1.0605003790239043
42
-1.7396297449015938
0
LWPOLYLINE
5
104
100
AcDbEntity
8
0
100
AcDbPolyline
90
8
70
1
43
0.0
10
-18.996515087562081
20
3.4158718584377068
42
0.20198943949153861
10
-16.469443067960757
20
2.9299837334014884
42
-2.9133397766055671
10
-18.99952316272454
20
-0.068714289377045504
42
0.21610503414850499
10
-20.080459429765707
20
2.0426590659106294
10
-24.811906173420518
20
5.8063102110267106
42
0.29931566555359096
10
-27.11374847966318
20
6.477004345059397
42
-2.8869709845741385
10
-24.8676752124411
20
9.7198224265329252
42
0.25900461613989689
10
-23.910681448204873
20
7.3685713749060842
0
LWPOLYLINE
5
105
100
AcDbEntity
8
0
100
AcDbPolyline
90
8
70
1
43
0.0
10
-38.754196224837202
20
13.124850409098192
42
0.11152085482599532
10
-37.794244122227205
20
11.126473762537433
42
-2.8515271433548088
10
-41.178286522900777
20
11.905548907831784
42
0.064888677296417757
10
-40.725884175352427
20
13.124850409098222
10
-40.725884175352434
20
16.056232312853219
42
0.061711342929010475
10
-41.253048477542826
20
17.395279849974013
42
-2.8183931831757691
10
-37.69325349206386
20
18.207430091562959
42
0.1035665439924353
10
-38.754196224837202
20
16.056232312853268
0
LWPOLYLINE
5
106
100
AcDbEntity
8
0
100
AcDbPolyline
90
8
70
1
43
0.0
10
-15.20750453549509
20
13.359189707142107
42
0.18001979586354891
10
-14.689212528868801
20
11.966299415857101
42
-3.2425384368318726
10
-18.111064723217201
20
11.807655535247541
42
0.20408641997138896
10
-17.303001023112575
20
13.207475943320599
10
-17.303001023112586
20
16.436560490577257
42
0.16932617805272293
10
-17.620591532734721
20
17.347479177395378
42
-3.7179383835972737
10
-14.540753808795262
20
17.32901533968225
42
0.23905909629634362
10
-15.207504535495087
20
16.014180574018511
0
CIRCLE
5
107
100
AcDbEntity
8
0
100
AcDbCircle
10
-28.050377355395607
20
9.5249996215104993
30
0
40
1.4755671162117423
210
0
220
0
230
1
0
LWPOLYLINE
5
108
100
AcDbEntity
8
0
100
AcDbPolyline
90
8
70
1
43
0.0
10
-18.99952316272454
20
-0.068714289377045545
42
2.9133397766055671
10
-16.469443067960754
20
2.9299837334014889
42
-0.20198943949153858
10
-18.996515087562081
20
3.4158718584377072
10
-23.910681448204873
20
7.3685713749060842
42
-0.25900461613989678
10
-24.8676752124411
20
9.7198224265329269
42
2.8869709845741345
10
-27.113748479663183
20
6.4770043450593926
42
-0.29931566555359151
10
-24.811906173420518
20
5.8063102110267097
10
-20.080459429765707
20
2.0426590659106312
42
-0.21610503414850504
0
CIRCLE
5
109
100
AcDbEntity
8
0
100
AcDbCircle
10
-16.064752355395608
20
19.993815868567701
30
0
40
1.5634647109466915
210
0
220
0
230
1
0
CIRCLE
5
110
100
AcDbEntity
8
0
100
AcDbCircle
10
-16.283767863095076
20
9.3769307657684919
30
0
40
1.5005759485490557
210
0
220
0
230
1
0
LWPOLYLINE
5
111
100
AcDbEntity
8
0
100
AcDbPolyline
90
8
70
1
43
0.0
10
-18.111064723217201
20
11.807655535247541
42
3.2425384368318704
10
-14.68921252886879
20
11.966299415857105
42
-0.1800197958635498
10
-15.20750453549509
20
13.359189707142107
10
-15.207504535495087
20
16.014180574018511
42
-0.2390590962963437
10
-14.540753808795259
20
17.329015339682247
42
3.7179383835972737
10
-17.620591532734732
20
17.347479177395371
42
-0.16932617805272396
10
-17.303001023112586
20
16.436560490577257
10
-17.303001023112571
20
13.207475943320599
42
-0.20408641997138888
0
CIRCLE
5
112
100
AcDbEntity
8
0
100
AcDbCircle
10
-32.320752294837284
20
5.9689999848604103
30
0
40
1.0767201549120278
210
0
220
-0
230
1
0
CIRCLE
5
113
100
AcDbEntity
8
0
100
AcDbCircle
10
-39.973350478056567
20
-0.22010405101025921
30
0
40
1.4352638343702075
210
0
220
0
230
1
0
LWPOLYLINE
5
114
100
AcDbEntity
8
0
100
AcDbPolyline
90
4
70
1
43
0.0
10
-34.808183076111341
20
2.396316635609709
42
1.1742449141810938
10
-36.039545494948769
20
4.2496321335605671
42
-0.10507988816061058
10
-40.637159924864079
20
2.6530969620891725
42
1.7396297449015965
10
-37.146751628695782
20
-1.0605003790239065
42
-0.20608711712040434
0
LWPOLYLINE
5
115
100
AcDbEntity
8
0
100
AcDbPolyline
90
8
70
1
43
0.0
10
-41.178286522900777
20
11.905548907831784
42
2.8515271433548044
10
-37.794244122227198
20
11.126473762537429
42
-0.11152085482599548
10
-38.754196224837202
20
13.124850409098192
10
-38.754196224837202
20
16.056232312853261
42
-0.10356654399243535
10
-37.693253492063853
20
18.207430091562955
42
2.8183931831757691
10
-41.253048477542826
20
17.395279849974013
42
-0.061711342929010503
10
-40.725884175352441
20
16.056232312853219
10
-40.725884175352441
20
13.124850409098235
42
-0.064888677296417757
0
CIRCLE
5
116
100
AcDbEntity
8
0
100
AcDbCircle
10
-28.050377355395607
20
-9.1077467581978198
30
0
40
1.0000000000000009
210
0
220
0
230
1
0
ENDSEC
0
SECTION
2
OBJECTS
0
DICTIONARY
5
C
100
AcDbDictionary
3
ACAD_GROUP
350
D
3
ACAD_MLINESTYLE
350
17
0
DICTIONARY
5
D
100
AcDbDictionary
0
DICTIONARY
5
1A
330
C
100
AcDbDictionary
0
DICTIONARY
5
17
100
AcDbDictionary
0
ENDSEC
0
EOF
