0
SECTION
2
HEADER
9
$INSUNITS
70
1
9
$ACADVER
1
AC1014
9
$HANDSEED
5
FFFF
0
ENDSEC
0
SECTION
2
TABLES
0
TABLE
2
VPORT
5
8
100
AcDbSymbolTable
0
ENDTAB
0
TABLE
2
LTYPE
5
5
100
AcDbSymbolTable
0
LTYPE
5
14
100
AcDbSymbolTableRecord
100
AcDbLinetypeTableRecord
2
BYBLOCK
70
0
0
LTYPE
5
15
100
AcDbSymbolTableRecord
100
AcDbLinetypeTableRecord
2
BYLAYER
70
0
0
ENDTAB
0
TABLE
2
LAYER
5
2
100
AcDbSymbolTable
70
2
0
LAYER
5
50
100
AcDbSymbolTableRecord
100
AcDbLayerTableRecord
2
0
70
0
6
CONTINUOUS
0
ENDTAB
0
TABLE
2
STYLE
5
3
100
AcDbSymbolTable
70
1
0
STYLE
5
11
100
AcDbSymbolTableRecord
100
AcDbTextStyleTableRecord
2
STANDARD
70
0
0
ENDTAB
0
TABLE
2
VIEW
5
6
100
AcDbSymbolTable
70
0
0
ENDTAB
0
TABLE
2
UCS
5
7
100
AcDbSymbolTable
70
0
0
ENDTAB
0
TABLE
2
APPID
5
9
100
AcDbSymbolTable
70
2
0
APPID
5
12
100
AcDbSymbolTableRecord
100
AcDbRegAppTableRecord
2
ACAD
70
0
0
ENDTAB
0
TABLE
2
DIMSTYLE
5
A
100
AcDbSymbolTable
70
1
0
ENDTAB
0
TABLE
2
BLOCK_RECORD
5
1
100
AcDbSymbolTable
70
1
0
BLOCK_RECORD
5
1F
100
AcDbSymbolTableRecord
100
AcDbBlockTableRecord
2
*MODEL_SPACE
0
BLOCK_RECORD
5
1B
100
AcDbSymbolTableRecord
100
AcDbBlockTableRecord
2
*PAPER_SPACE
0
ENDTAB
0
ENDSEC
0
SECTION
2
BLOCKS
0
BLOCK
5
20
100
AcDbEntity
100
AcDbBlockBegin
2
*MODEL_SPACE
0
ENDBLK
5
21
100
AcDbEntity
100
AcDbBlockEnd
0
BLOCK
5
1C
100
AcDbEntity
100
AcDbBlockBegin
2
*PAPER_SPACE
0
ENDBLK
5
1D
100
AcDbEntity
100
AcDbBlockEnd
0
ENDSEC
0
SECTION
2
ENTITIES
0
LWPOLYLINE
5
100
100
AcDbEntity
8
0
100
AcDbPolyline
90
4
70
1
43
0.0
10
0
20
-3
10
0
20
0
10
-3.9999999999999996
20
0
10
-3.9999999999999996
20
-3
0
LWPOLYLINE
5
101
100
AcDbEntity
8
0
100
AcDbPolyline
90
4
70
1
43
0.0
10
-0.065939131144064481
20
-0.065939131144064481
10
-0.065939131144064481
20
-2.9340608688559295
10
-3.9340608688559402
20
-2.9340608688559295
10
-3.9340608688559402
20
-0.065939131144064536
0
LWPOLYLINE
5
102
100
AcDbEntity
8
0
100
AcDbPolyline
90
4
70
1
43
0.0
10
0
20
-3
10
0
20
0
10
-3.9999999999999996
20
0
10
-3.9999999999999996
20
-3
0
LWPOLYLINE
5
103
100
AcDbEntity
8
0
100
AcDbPolyline
90
4
70
1
43
0.0
10
-0.065939131144064481
20
-0.065939131144064481
10
-0.065939131144064536
20
-2.9340608688559295
10
-3.9340608688559402
20
-2.9340608688559295
10
-3.9340608688559402
20
-0.065939131144064536
0
LWPOLYLINE
5
104
100
AcDbEntity
8
0
100
AcDbPolyline
90
4
70
1
43
0.0
10
-0.065939131144064481
20
-2.9340608688559295
10
-3.9340608688559402
20
-2.9340608688559295
10
-3.9340608688559402
20
-0.065939131144064536
10
-0.065939131144064481
20
-0.065939131144064536
0
CIRCLE
5
105
100
AcDbEntity
8
0
100
AcDbCircle
10
-0.20000000638285997
20
-0.20000000638285997
30
0
40
0.039370078740157487
210
0
220
-0
230
1
0
CIRCLE
5
106
100
AcDbEntity
8
0
100
AcDbCircle
10
-3.7999999936171394
20
-0.20000000638285997
30
0
40
0.039370078740157292
210
0
220
-0
230
1
0
CIRCLE
5
107
100
AcDbEntity
8
0
100
AcDbCircle
10
-0.20000000638285997
20
-2.8000000893600294
30
0
40
0.039370078740157487
210
0
220
-0
230
1
0
CIRCLE
5
108
100
AcDbEntity
8
0
100
AcDbCircle
10
-3.7999999936171394
20
-2.8000000893600294
30
0
40
0.039370078740157292
210
0
220
-0
230
1
0
LWPOLYLINE
5
109
100
AcDbEntity
8
0
100
AcDbPolyline
90
88
70
1
43
0.0
10
-1.6000000510628798
20
-2.1000000670200296
10
-1.3500000510628798
20
-2.1000000670200296
10
-1.3500000510628798
20
-1.4500000382971601
10
-1.6550441829647098
20
-1.4500000382971601
10
-1.6550441829647098
20
-0.53256851904275504
10
-1.92203965050324
20
-0.53256851904275504
10
-1.92203965050324
20
-1.5775210712115897
10
-1.5000000478714499
20
-1.5775210712115897
10
-1.5000000478714499
20
-1.8275210712115897
10
-1.67203965050324
20
-1.8275210712115897
10
-1.67203965050324
20
-2.5000000797857393
10
-1.92203965050324
20
-2.5000000797857393
10
-1.92203965050324
20
-2.2017245165131598
10
-2.2196719405015894
20
-2.2017245165131598
10
-2.2196719405015894
20
-1.9517245165131598
10
-1.92203965050324
20
-1.9517245165131598
10
-1.92203965050324
20
-1.8275210712115897
10
-2.3244412604314397
20
-1.8275210712115897
10
-2.3244412604314397
20
-2.4500000861686
10
-2.2495587195911102
20
-2.4500000861686
10
-2.2495587195911102
20
-2.31192424671345
10
-1.99955871959111
20
-2.31192424671345
10
-1.99955871959111
20
-2.7000000861686
10
-2.5744412604314402
20
-2.7000000861686
10
-2.5744412604314402
20
-2.3000000734028898
10
-2.8000000893600294
20
-2.3000000734028898
10
-2.8000000893600294
20
-2.7000000861686
10
-3.40000010850861
20
-2.7000000861686
10
-3.40000010850861
20
-2.4500000861686
10
-3.0500000893600294
20
-2.4500000861686
10
-3.0500000893600294
20
-1.2500000478714497
10
-2.5744412604314402
20
-1.2500000478714497
10
-2.5744412604314402
20
-0.93249566343551493
10
-3.40000010850861
20
-0.93249566343551493
10
-3.40000010850861
20
-0.68249566343551493
10
-3.1490796109581396
20
-0.68249566343551493
10
-3.1490796109581396
20
-0.53256851904275504
10
-3.4983177065457296
20
-0.53256851904275504
10
-3.4983177065457296
20
-1.0033663787018199
10
-3.1463426041618097
20
-1.0033663787018199
10
-3.1463426041618097
20
-2.05000005744574
10
-3.5000001117000399
20
-2.05000005744574
10
-3.5000001117000399
20
-2.7000000861686
10
-3.7500001117000399
20
-2.7000000861686
10
-3.7500001117000399
20
-1.8000000574457398
10
-3.3963426041618101
20
-1.8000000574457398
10
-3.3963426041618101
20
-1.7000000542543099
10
-3.7376534035802398
20
-1.7000000542543099
10
-3.7376534035802398
20
-1.3231712941023297
10
-3.4876534035802398
20
-1.3231712941023297
10
-3.4876534035802398
20
-1.4500000542543099
10
-3.3963426041618101
20
-1.4500000542543099
10
-3.3963426041618101
20
-1.2533663787018201
10
-3.7485389613868194
20
-1.2533663787018201
10
-3.7485389613868194
20
-1.0033663787018199
10
-3.7483177065457296
20
-1.0033663787018199
10
-3.7483177065457296
20
-0.28256851904275498
10
-2.3227083776899198
20
-0.28256851904275498
10
-2.3227083776899198
20
-0.68249566343551493
10
-2.17203965050324
20
-0.68249566343551493
10
-2.17203965050324
20
-0.28256851904275498
10
-1.40504418296471
20
-0.28256851904275498
10
-1.40504418296471
20
-1.1999987756750798
10
-1.10000005106288
20
-1.1999987756750798
10
-1.10000005106288
20
-1.2000000382971598
10
-0.55000000957428896
20
-1.2000000382971598
10
-0.55000000957428896
20
-0.55000000957428896
10
-0.80059733016839385
20
-0.55000000957428896
10
-0.80059733016839385
20
-1.0000000319143001
10
-1.33014949974985
20
-1.0000000319143001
10
-1.33014949974985
20
-0.75000003191429787
10
-1.05059733016839
20
-0.75000003191429787
10
-1.05059733016839
20
-0.30000000957428896
10
-0.30000000957428902
20
-0.30000000957428896
10
-0.30000000957428896
20
-2.7000000861686
10
-0.55000000957428896
20
-2.7000000861686
10
-0.55000000957428896
20
-1.4500000382971601
10
-0.64029842641159584
20
-1.4500000382971601
10
-0.64029842641159584
20
-2.3500000670200301
10
-0.89029842641159584
20
-2.3500000670200301
10
-0.89029842641159584
20
-2.4500000861686
10
-0.642984969874838
20
-2.4500000861686
10
-0.642984969874838
20
-2.7000000861686
10
-1.1402984264115998
20
-2.7000000861686
10
-1.1402984264115998
20
-2.3322387864475802
10
-1.3500000510628798
20
-2.3322387864475802
10
-1.3500000510628798
20
-2.7000000861686
10
-1.6000000510628798
20
-2.7000000861686
0
LWPOLYLINE
5
110
100
AcDbEntity
8
0
100
AcDbPolyline
90
4
70
1
43
0.0
10
-2.8990796109581396
20
-0.53256851904275504
10
-2.8990796109581396
20
-0.68249566343551493
10
-2.5727083776899193
20
-0.68249566343551493
10
-2.5727083776899193
20
-0.53256851904275504
0
LWPOLYLINE
5
111
100
AcDbEntity
8
0
100
AcDbPolyline
90
4
70
1
43
0.0
10
-2.17203965050324
20
-1.5775210712115897
10
-2.17203965050324
20
-0.93249566343551493
10
-2.3244412604314397
20
-0.93249566343551493
10
-2.3244412604314397
20
-1.5775210712115897
0
LWPOLYLINE
5
112
100
AcDbEntity
8
0
100
AcDbPolyline
90
8
70
1
43
0.0
10
-2.5744412604314402
20
-1.8275210712115897
10
-2.7000000861686
20
-1.8275210712115897
10
-2.7000000861686
20
-1.5775210712115897
10
-2.5744412604314402
20
-1.5775210712115897
10
-2.5744412604314402
20
-1.5000000478714499
10
-2.8000000893600294
20
-1.5000000478714499
10
-2.8000000893600294
20
-2.0500000734028898
10
-2.5744412604314402
20
-2.0500000734028898
0
LWPOLYLINE
5
113
100
AcDbEntity
8
0
100
AcDbPolyline
90
4
70
1
43
0.0
10
-0.89029842641159584
20
-1.4500000382971601
10
-1.10000005106288
20
-1.4500000382971601
10
-1.10000005106288
20
-2.1000000670200296
10
-0.89029842641159584
20
-2.1000000670200296
0
CIRCLE
5
114
100
AcDbEntity
8
0
100
AcDbCircle
10
-0.42989534722535999
20
-2.5936627658108895
30
0
40
0.062499999999999986
210
0
220
-0
230
1
0
CIRCLE
5
115
100
AcDbEntity
8
0
100
AcDbCircle
10
-3.6326888245491196
20
-2.5933523294213794
30
0
40
0.062499999999999799
210
0
220
-0
230
1
0
ENDSEC
0
SECTION
2
OBJECTS
0
DICTIONARY
5
C
100
AcDbDictionary
3
ACAD_GROUP
350
D
3
ACAD_MLINESTYLE
350
17
0
DICTIONARY
5
D
100
AcDbDictionary
0
DICTIONARY
5
1A
330
C
100
AcDbDictionary
0
DICTIONARY
5
17
100
AcDbDictionary
0
ENDSEC
0
EOF
