ISO-10303-21;
HEADER;
/* Generated by software containing ST-Developer
 * from STEP Tools, Inc. (www.steptools.com) 
 */

FILE_DESCRIPTION(
/* description */ ('',
'CAx-IF Rec.Pracs.---Representation and Presentation of Product Manufa
cturing Information (PMI)---4.0---2014-10-13'),
/* implementation_level */ '2;1');

FILE_NAME(
/* name */ 'PhoneHolder-Base.step',
/* time_stamp */ '2025-04-05T17:22:45+08:00',
/* author */ (''),
/* organization */ (''),
/* preprocessor_version */ 'ST-DEVELOPER v20',
/* originating_system */ 'Autodesk Translation Framework v13.20.0.188',

/* authorisation */ '');

FILE_SCHEMA (('AP242_MANAGED_MODEL_BASED_3D_ENGINEERING_MIM_LF { 1 0 10303 442 1 1 4 }'));
ENDSEC;

DATA;
#10=MECHANICAL_DESIGN_GEOMETRIC_PRESENTATION_REPRESENTATION('',(#13),#330);
#11=SHAPE_REPRESENTATION_RELATIONSHIP('SRR','None',#337,#12);
#12=ADVANCED_BREP_SHAPE_REPRESENTATION('',(#14),#329);
#13=STYLED_ITEM('',(#346),#14);
#14=MANIFOLD_SOLID_BREP('Body1',#160);
#15=(
BOUNDED_SURFACE()
B_SPLINE_SURFACE(1,2,((#305,#306,#307,#308,#309,#310,#311,#312,#313),(#314,
#315,#316,#317,#318,#319,#320,#321,#322)),.UNSPECIFIED.,.F.,.T.,.F.)
B_SPLINE_SURFACE_WITH_KNOTS((2,2),(3,2,2,2,3),(-9.1880526175875E-17,0.303448275862072),
(-3.14159265358979,-1.5707963267949,0.,1.5707963267949,3.14159265358979),
 .UNSPECIFIED.)
GEOMETRIC_REPRESENTATION_ITEM()
RATIONAL_B_SPLINE_SURFACE(((1.,0.707106781186548,1.,0.707106781186548,1.,
0.707106781186548,1.,0.707106781186548,1.),(1.,0.707106781186548,1.,0.707106781186548,
1.,0.707106781186548,1.,0.707106781186548,1.)))
REPRESENTATION_ITEM('')
SURFACE()
);
#16=ELLIPSE('',#176,72.4999999999994,25.);
#17=ELLIPSE('',#177,72.4999999999994,25.);
#18=ELLIPSE('',#182,72.4999999999994,25.);
#19=ELLIPSE('',#184,72.4999999999994,25.);
#20=ELLIPSE('',#185,72.4999999999994,25.);
#21=ELLIPSE('',#186,72.4999999999994,25.);
#22=PLANE('',#175);
#23=PLANE('',#179);
#24=PLANE('',#180);
#25=PLANE('',#181);
#26=PLANE('',#183);
#27=PLANE('',#187);
#28=FACE_OUTER_BOUND('',#37,.T.);
#29=FACE_OUTER_BOUND('',#38,.T.);
#30=FACE_OUTER_BOUND('',#39,.T.);
#31=FACE_OUTER_BOUND('',#40,.T.);
#32=FACE_OUTER_BOUND('',#41,.T.);
#33=FACE_OUTER_BOUND('',#42,.T.);
#34=FACE_OUTER_BOUND('',#43,.T.);
#35=FACE_OUTER_BOUND('',#44,.T.);
#36=FACE_OUTER_BOUND('',#45,.T.);
#37=EDGE_LOOP('',(#107,#108,#109,#110));
#38=EDGE_LOOP('',(#111,#112,#113,#114));
#39=EDGE_LOOP('',(#115,#116,#117,#118));
#40=EDGE_LOOP('',(#119,#120,#121,#122));
#41=EDGE_LOOP('',(#123,#124,#125,#126));
#42=EDGE_LOOP('',(#127,#128));
#43=EDGE_LOOP('',(#129,#130,#131));
#44=EDGE_LOOP('',(#132,#133,#134,#135,#136,#137,#138,#139,#140,#141,#142,
#143,#144,#145,#146,#147));
#45=EDGE_LOOP('',(#148));
#46=LINE('',#244,#57);
#47=LINE('',#256,#58);
#48=LINE('',#261,#59);
#49=LINE('',#286,#60);
#50=LINE('',#289,#61);
#51=LINE('',#291,#62);
#52=LINE('',#292,#63);
#53=LINE('',#295,#64);
#54=LINE('',#297,#65);
#55=LINE('',#298,#66);
#56=LINE('',#325,#67);
#57=VECTOR('',#192,10.);
#58=VECTOR('',#193,10.);
#59=VECTOR('',#198,10.);
#60=VECTOR('',#203,10.);
#61=VECTOR('',#206,10.);
#62=VECTOR('',#207,10.);
#63=VECTOR('',#208,10.);
#64=VECTOR('',#211,10.);
#65=VECTOR('',#212,10.);
#66=VECTOR('',#213,10.);
#67=VECTOR('',#226,72.4999999999994);
#68=B_SPLINE_CURVE_WITH_KNOTS('',3,(#233,#234,#235,#236,#237,#238,#239,
#240,#241,#242),.UNSPECIFIED.,.F.,.F.,(4,2,2,2,4),(1.60016454306071,1.78862280079042,
1.97708105852012,2.19372950145755,2.41037794439498),.UNSPECIFIED.);
#69=B_SPLINE_CURVE_WITH_KNOTS('',3,(#246,#247,#248,#249,#250,#251,#252,
#253,#254,#255),.UNSPECIFIED.,.F.,.F.,(4,2,2,2,4),(0.789951141726444,1.00659958466387,
1.2232480276013,1.41170628533101,1.60016454306071),.UNSPECIFIED.);
#70=B_SPLINE_CURVE_WITH_KNOTS('',3,(#265,#266,#267,#268,#269,#270,#271,
#272,#273,#274),.UNSPECIFIED.,.F.,.F.,(4,2,2,2,4),(1.58319698783133,1.77430084042391,
1.96540469301649,2.16633808395518,2.36727147489387),.UNSPECIFIED.);
#71=B_SPLINE_CURVE_WITH_KNOTS('',3,(#276,#277,#278,#279,#280,#281,#282,
#283,#284,#285),.UNSPECIFIED.,.F.,.F.,(4,2,2,2,4),(0.799137707481495,1.00007109842018,
1.20100448935887,1.39210834195145,1.58321219454403),.UNSPECIFIED.);
#72=VERTEX_POINT('',#231);
#73=VERTEX_POINT('',#232);
#74=VERTEX_POINT('',#243);
#75=VERTEX_POINT('',#245);
#76=VERTEX_POINT('',#258);
#77=VERTEX_POINT('',#260);
#78=VERTEX_POINT('',#264);
#79=VERTEX_POINT('',#275);
#80=VERTEX_POINT('',#288);
#81=VERTEX_POINT('',#290);
#82=VERTEX_POINT('',#294);
#83=VERTEX_POINT('',#296);
#84=VERTEX_POINT('',#302);
#85=VERTEX_POINT('',#323);
#86=EDGE_CURVE('',#72,#73,#68,.T.);
#87=EDGE_CURVE('',#73,#74,#46,.T.);
#88=EDGE_CURVE('',#74,#75,#69,.T.);
#89=EDGE_CURVE('',#75,#72,#47,.T.);
#90=EDGE_CURVE('',#76,#73,#16,.T.);
#91=EDGE_CURVE('',#77,#76,#48,.T.);
#92=EDGE_CURVE('',#74,#77,#17,.T.);
#93=EDGE_CURVE('',#78,#77,#70,.T.);
#94=EDGE_CURVE('',#76,#79,#71,.T.);
#95=EDGE_CURVE('',#79,#78,#49,.T.);
#96=EDGE_CURVE('',#80,#79,#50,.T.);
#97=EDGE_CURVE('',#81,#80,#51,.T.);
#98=EDGE_CURVE('',#78,#81,#52,.T.);
#99=EDGE_CURVE('',#82,#75,#53,.T.);
#100=EDGE_CURVE('',#83,#82,#54,.T.);
#101=EDGE_CURVE('',#72,#83,#55,.T.);
#102=EDGE_CURVE('',#83,#82,#18,.T.);
#103=EDGE_CURVE('',#84,#80,#19,.T.);
#104=EDGE_CURVE('',#81,#84,#20,.T.);
#105=EDGE_CURVE('',#85,#85,#21,.T.);
#106=EDGE_CURVE('',#85,#84,#56,.T.);
#107=ORIENTED_EDGE('',*,*,#86,.T.);
#108=ORIENTED_EDGE('',*,*,#87,.T.);
#109=ORIENTED_EDGE('',*,*,#88,.T.);
#110=ORIENTED_EDGE('',*,*,#89,.T.);
#111=ORIENTED_EDGE('',*,*,#87,.F.);
#112=ORIENTED_EDGE('',*,*,#90,.F.);
#113=ORIENTED_EDGE('',*,*,#91,.F.);
#114=ORIENTED_EDGE('',*,*,#92,.F.);
#115=ORIENTED_EDGE('',*,*,#93,.T.);
#116=ORIENTED_EDGE('',*,*,#91,.T.);
#117=ORIENTED_EDGE('',*,*,#94,.T.);
#118=ORIENTED_EDGE('',*,*,#95,.T.);
#119=ORIENTED_EDGE('',*,*,#95,.F.);
#120=ORIENTED_EDGE('',*,*,#96,.F.);
#121=ORIENTED_EDGE('',*,*,#97,.F.);
#122=ORIENTED_EDGE('',*,*,#98,.F.);
#123=ORIENTED_EDGE('',*,*,#89,.F.);
#124=ORIENTED_EDGE('',*,*,#99,.F.);
#125=ORIENTED_EDGE('',*,*,#100,.F.);
#126=ORIENTED_EDGE('',*,*,#101,.F.);
#127=ORIENTED_EDGE('',*,*,#100,.T.);
#128=ORIENTED_EDGE('',*,*,#102,.F.);
#129=ORIENTED_EDGE('',*,*,#97,.T.);
#130=ORIENTED_EDGE('',*,*,#103,.F.);
#131=ORIENTED_EDGE('',*,*,#104,.F.);
#132=ORIENTED_EDGE('',*,*,#105,.F.);
#133=ORIENTED_EDGE('',*,*,#106,.T.);
#134=ORIENTED_EDGE('',*,*,#103,.T.);
#135=ORIENTED_EDGE('',*,*,#96,.T.);
#136=ORIENTED_EDGE('',*,*,#94,.F.);
#137=ORIENTED_EDGE('',*,*,#90,.T.);
#138=ORIENTED_EDGE('',*,*,#86,.F.);
#139=ORIENTED_EDGE('',*,*,#101,.T.);
#140=ORIENTED_EDGE('',*,*,#102,.T.);
#141=ORIENTED_EDGE('',*,*,#99,.T.);
#142=ORIENTED_EDGE('',*,*,#88,.F.);
#143=ORIENTED_EDGE('',*,*,#92,.T.);
#144=ORIENTED_EDGE('',*,*,#93,.F.);
#145=ORIENTED_EDGE('',*,*,#98,.T.);
#146=ORIENTED_EDGE('',*,*,#104,.T.);
#147=ORIENTED_EDGE('',*,*,#106,.F.);
#148=ORIENTED_EDGE('',*,*,#105,.T.);
#149=CYLINDRICAL_SURFACE('',#174,5.);
#150=CYLINDRICAL_SURFACE('',#178,5.);
#151=ADVANCED_FACE('',(#28),#149,.F.);
#152=ADVANCED_FACE('',(#29),#22,.F.);
#153=ADVANCED_FACE('',(#30),#150,.F.);
#154=ADVANCED_FACE('',(#31),#23,.F.);
#155=ADVANCED_FACE('',(#32),#24,.F.);
#156=ADVANCED_FACE('',(#33),#25,.F.);
#157=ADVANCED_FACE('',(#34),#26,.F.);
#158=ADVANCED_FACE('',(#35),#15,.F.);
#159=ADVANCED_FACE('',(#36),#27,.T.);
#160=CLOSED_SHELL('',(#151,#152,#153,#154,#155,#156,#157,#158,#159));
#161=DERIVED_UNIT_ELEMENT(#163,1.);
#162=DERIVED_UNIT_ELEMENT(#332,-3.);
#163=(
MASS_UNIT()
NAMED_UNIT(*)
SI_UNIT(.KILO.,.GRAM.)
);
#164=DERIVED_UNIT((#161,#162));
#165=MEASURE_REPRESENTATION_ITEM('density measure',
POSITIVE_RATIO_MEASURE(7850.),#164);
#166=PROPERTY_DEFINITION_REPRESENTATION(#171,#168);
#167=PROPERTY_DEFINITION_REPRESENTATION(#172,#169);
#168=REPRESENTATION('material name',(#170),#329);
#169=REPRESENTATION('density',(#165),#329);
#170=DESCRIPTIVE_REPRESENTATION_ITEM('Steel','Steel');
#171=PROPERTY_DEFINITION('material property','material name',#339);
#172=PROPERTY_DEFINITION('material property','density of part',#339);
#173=AXIS2_PLACEMENT_3D('',#229,#188,#189);
#174=AXIS2_PLACEMENT_3D('',#230,#190,#191);
#175=AXIS2_PLACEMENT_3D('',#257,#194,#195);
#176=AXIS2_PLACEMENT_3D('',#259,#196,#197);
#177=AXIS2_PLACEMENT_3D('',#262,#199,#200);
#178=AXIS2_PLACEMENT_3D('',#263,#201,#202);
#179=AXIS2_PLACEMENT_3D('',#287,#204,#205);
#180=AXIS2_PLACEMENT_3D('',#293,#209,#210);
#181=AXIS2_PLACEMENT_3D('',#299,#214,#215);
#182=AXIS2_PLACEMENT_3D('',#300,#216,#217);
#183=AXIS2_PLACEMENT_3D('',#301,#218,#219);
#184=AXIS2_PLACEMENT_3D('',#303,#220,#221);
#185=AXIS2_PLACEMENT_3D('',#304,#222,#223);
#186=AXIS2_PLACEMENT_3D('',#324,#224,#225);
#187=AXIS2_PLACEMENT_3D('',#326,#227,#228);
#188=DIRECTION('axis',(0.,0.,1.));
#189=DIRECTION('refdir',(1.,0.,0.));
#190=DIRECTION('center_axis',(0.,-1.,-3.10862446895044E-15));
#191=DIRECTION('ref_axis',(-0.707106781186547,-5.02429586778808E-15,0.707106781186547));
#192=DIRECTION('',(0.,-1.,-3.10862446895044E-15));
#193=DIRECTION('',(0.,1.,3.10862446895044E-15));
#194=DIRECTION('center_axis',(0.,-3.10862446895044E-15,1.));
#195=DIRECTION('ref_axis',(1.,0.,0.));
#196=DIRECTION('center_axis',(0.,-3.10862446895044E-15,1.));
#197=DIRECTION('ref_axis',(-1.,5.82867087928208E-16,1.88250897836833E-30));
#198=DIRECTION('',(0.,1.,3.10862446895044E-15));
#199=DIRECTION('center_axis',(0.,-3.10862446895044E-15,1.));
#200=DIRECTION('ref_axis',(-1.,5.82867087928208E-16,1.88250897836833E-30));
#201=DIRECTION('center_axis',(0.,1.,3.10862446895044E-15));
#202=DIRECTION('ref_axis',(0.707106781186547,-2.51214793389404E-15,0.707106781186547));
#203=DIRECTION('',(0.,-1.,-3.10862446895044E-15));
#204=DIRECTION('center_axis',(1.,0.,0.));
#205=DIRECTION('ref_axis',(0.,1.,3.10862446895044E-15));
#206=DIRECTION('',(0.,-3.22973970800045E-15,1.));
#207=DIRECTION('',(0.,1.,3.10862446895044E-15));
#208=DIRECTION('',(0.,3.22973970800045E-15,-1.));
#209=DIRECTION('center_axis',(-1.,0.,0.));
#210=DIRECTION('ref_axis',(0.,-1.,-3.10862446895044E-15));
#211=DIRECTION('',(0.,-3.22973970800045E-15,1.));
#212=DIRECTION('',(0.,-1.,-3.10862446895044E-15));
#213=DIRECTION('',(0.,3.22973970800045E-15,-1.));
#214=DIRECTION('center_axis',(0.,-3.10862446895044E-15,1.));
#215=DIRECTION('ref_axis',(1.,0.,0.));
#216=DIRECTION('center_axis',(0.,-3.10862446895044E-15,1.));
#217=DIRECTION('ref_axis',(-1.,5.82867087928208E-16,1.81191489167951E-30));
#218=DIRECTION('center_axis',(0.,-3.10862446895044E-15,1.));
#219=DIRECTION('ref_axis',(1.,0.,0.));
#220=DIRECTION('center_axis',(0.,-3.10862446895044E-15,1.));
#221=DIRECTION('ref_axis',(-1.,5.82867087928208E-16,1.81191489167951E-30));
#222=DIRECTION('center_axis',(0.,-3.10862446895044E-15,1.));
#223=DIRECTION('ref_axis',(-1.,5.82867087928208E-16,1.81191489167951E-30));
#224=DIRECTION('center_axis',(0.,-3.10862446895044E-15,1.));
#225=DIRECTION('ref_axis',(-1.,5.82867087928208E-16,1.81191489167951E-30));
#226=DIRECTION('',(0.,3.22973970800046E-15,-1.));
#227=DIRECTION('center_axis',(0.,-3.10862446895044E-15,1.));
#228=DIRECTION('ref_axis',(1.,0.,0.));
#229=CARTESIAN_POINT('',(0.,0.,0.));
#230=CARTESIAN_POINT('Origin',(35.289845238191,88.7132110580657,-13.9999999999997));
#231=CARTESIAN_POINT('',(30.289845238191,94.4211232502196,-13.9999999999997));
#232=CARTESIAN_POINT('',(35.289845238191,97.2896541605376,-8.99999999999969));
#233=CARTESIAN_POINT('Ctrl Pts',(30.289845238191,94.4211232502196,-13.9999999999997));
#234=CARTESIAN_POINT('Ctrl Pts',(30.289845238191,94.4211232502196,-13.3718058075674));
#235=CARTESIAN_POINT('Ctrl Pts',(30.4156267775294,94.5066350892163,-12.7127052460055));
#236=CARTESIAN_POINT('Ctrl Pts',(30.9012067309196,94.8242000925851,-11.5190749101385));
#237=CARTESIAN_POINT('Ctrl Pts',(31.2602945352856,95.054060107527,-10.9836738385934));
#238=CARTESIAN_POINT('Ctrl Pts',(32.1161732491823,95.5767473541955,-10.0793895349736));
#239=CARTESIAN_POINT('Ctrl Pts',(32.6931258199677,95.9152387903319,-9.67232284486916));
#240=CARTESIAN_POINT('Ctrl Pts',(33.9562486303994,96.6115407098009,-9.1324275154711));
#241=CARTESIAN_POINT('Ctrl Pts',(34.6427100017455,96.9691339835895,-8.99999999999969));
#242=CARTESIAN_POINT('Ctrl Pts',(35.289845238191,97.2896541605377,-8.99999999999969));
#243=CARTESIAN_POINT('',(35.289845238191,68.7209435712851,-8.99999999999978));
#244=CARTESIAN_POINT('',(35.289845238191,88.7132110580657,-8.99999999999972));
#245=CARTESIAN_POINT('',(30.289845238191,71.5894744816032,-13.9999999999998));
#246=CARTESIAN_POINT('Ctrl Pts',(35.289845238191,68.7209435712851,-8.99999999999978));
#247=CARTESIAN_POINT('Ctrl Pts',(34.6427100017455,69.0414637482333,-8.99999999999979));
#248=CARTESIAN_POINT('Ctrl Pts',(33.9562486303994,69.3990570220219,-9.13242751547119));
#249=CARTESIAN_POINT('Ctrl Pts',(32.6931258199677,70.0953589414909,-9.67232284486925));
#250=CARTESIAN_POINT('Ctrl Pts',(32.1161732491823,70.4338503776272,-10.0793895349737));
#251=CARTESIAN_POINT('Ctrl Pts',(31.2602945352856,70.9565376242957,-10.9836738385935));
#252=CARTESIAN_POINT('Ctrl Pts',(30.9012067309196,71.1863976392376,-11.5190749101385));
#253=CARTESIAN_POINT('Ctrl Pts',(30.4156267775294,71.5039626426065,-12.7127052460056));
#254=CARTESIAN_POINT('Ctrl Pts',(30.289845238191,71.5894744816032,-13.3718058075674));
#255=CARTESIAN_POINT('Ctrl Pts',(30.289845238191,71.5894744816032,-13.9999999999998));
#256=CARTESIAN_POINT('',(30.289845238191,88.7132110580657,-13.9999999999997));
#257=CARTESIAN_POINT('Origin',(36.289845238191,83.0052988659114,-8.99999999999974));
#258=CARTESIAN_POINT('',(37.289845238191,98.2324727733732,-8.99999999999969));
#259=CARTESIAN_POINT('Origin',(94.7898452381904,83.0052988659113,-8.99999999999974));
#260=CARTESIAN_POINT('',(37.289845238191,67.7781249584495,-8.99999999999979));
#261=CARTESIAN_POINT('',(37.289845238191,74.3846092107389,-8.99999999999976));
#262=CARTESIAN_POINT('Origin',(94.7898452381904,83.0052988659113,-8.99999999999974));
#263=CARTESIAN_POINT('Origin',(37.289845238191,74.3846092107389,-13.9999999999998));
#264=CARTESIAN_POINT('',(42.289845238191,65.7639195555665,-13.9999999999998));
#265=CARTESIAN_POINT('Ctrl Pts',(42.289845238191,65.7639195555665,-13.9999999999998));
#266=CARTESIAN_POINT('Ctrl Pts',(42.289845238191,65.7639195555665,-13.3629871580245));
#267=CARTESIAN_POINT('Ctrl Pts',(42.1604331704667,65.8104073276538,-12.687337050498));
#268=CARTESIAN_POINT('Ctrl Pts',(41.6454039370817,65.9998087534545,-11.4554335889093));
#269=CARTESIAN_POINT('Ctrl Pts',(41.2600485975738,66.1431433950285,-10.8991355475171));
#270=CARTESIAN_POINT('Ctrl Pts',(40.3683522132989,66.4858638967072,-10.0074391632422));
#271=CARTESIAN_POINT('Ctrl Pts',(39.7958776464866,66.7111892515088,-9.62234831227095));
#272=CARTESIAN_POINT('Ctrl Pts',(38.5619404729111,67.2198864703024,-9.11883148680236));
#273=CARTESIAN_POINT('Ctrl Pts',(37.9008571513062,67.5037766928183,-8.99999999999979));
#274=CARTESIAN_POINT('Ctrl Pts',(37.289845238191,67.7781249584495,-8.99999999999979));
#275=CARTESIAN_POINT('',(42.289845238191,100.246678176256,-13.9999999999997));
#276=CARTESIAN_POINT('Ctrl Pts',(37.289845238191,98.2324727733732,-8.99999999999969));
#277=CARTESIAN_POINT('Ctrl Pts',(37.9008571513062,98.5068210390044,-8.99999999999969));
#278=CARTESIAN_POINT('Ctrl Pts',(38.5619404729111,98.7907112615204,-9.11883148680227));
#279=CARTESIAN_POINT('Ctrl Pts',(39.7958776464866,99.299408480314,-9.62234831227086));
#280=CARTESIAN_POINT('Ctrl Pts',(40.3683522132989,99.5247338351155,-10.0074391632421));
#281=CARTESIAN_POINT('Ctrl Pts',(41.2600485975738,99.8674543367943,-10.899135547517));
#282=CARTESIAN_POINT('Ctrl Pts',(41.6454039370817,100.010788978368,-11.4554335889092));
#283=CARTESIAN_POINT('Ctrl Pts',(42.1604331704667,100.200190404169,-12.6873370504979));
#284=CARTESIAN_POINT('Ctrl Pts',(42.289845238191,100.246678176256,-13.3629871580244));
#285=CARTESIAN_POINT('Ctrl Pts',(42.289845238191,100.246678176256,-13.9999999999997));
#286=CARTESIAN_POINT('',(42.289845238191,74.3846092107389,-13.9999999999998));
#287=CARTESIAN_POINT('Origin',(42.289845238191,65.7639195555665,-14.9999999999998));
#288=CARTESIAN_POINT('',(42.289845238191,100.246678176256,-14.9999999999997));
#289=CARTESIAN_POINT('',(42.289845238191,100.246678176256,-14.9999999999997));
#290=CARTESIAN_POINT('',(42.289845238191,65.7639195555665,-14.9999999999998));
#291=CARTESIAN_POINT('',(42.2898452381909,74.3846092107389,-14.9999999999998));
#292=CARTESIAN_POINT('',(42.289845238191,65.7639195555665,-14.9999999999998));
#293=CARTESIAN_POINT('Origin',(30.289845238191,94.4211232502199,-14.9999999999997));
#294=CARTESIAN_POINT('',(30.289845238191,71.5894744816028,-14.9999999999998));
#295=CARTESIAN_POINT('',(30.289845238191,71.5894744816032,-14.9999999999998));
#296=CARTESIAN_POINT('',(30.289845238191,94.4211232502199,-14.9999999999997));
#297=CARTESIAN_POINT('',(30.289845238191,88.7132110580657,-14.9999999999997));
#298=CARTESIAN_POINT('',(30.289845238191,94.4211232502196,-14.9999999999997));
#299=CARTESIAN_POINT('Origin',(94.7898452381904,83.0052988659114,-14.9999999999997));
#300=CARTESIAN_POINT('Origin',(94.7898452381904,83.0052988659114,-14.9999999999997));
#301=CARTESIAN_POINT('Origin',(94.7898452381904,83.0052988659114,-14.9999999999997));
#302=CARTESIAN_POINT('',(167.28984523819,83.0052988659113,-14.9999999999997));
#303=CARTESIAN_POINT('Origin',(94.7898452381904,83.0052988659114,-14.9999999999997));
#304=CARTESIAN_POINT('Origin',(94.7898452381904,83.0052988659114,-14.9999999999997));
#305=CARTESIAN_POINT('Ctrl Pts',(167.28984523819,83.0052988659113,-14.9999999999997));
#306=CARTESIAN_POINT('Ctrl Pts',(167.28984523819,108.005298865911,-14.9999999999997));
#307=CARTESIAN_POINT('Ctrl Pts',(94.7898452381904,108.005298865911,-14.9999999999997));
#308=CARTESIAN_POINT('Ctrl Pts',(22.289845238191,108.005298865911,-14.9999999999997));
#309=CARTESIAN_POINT('Ctrl Pts',(22.289845238191,83.0052988659114,-14.9999999999997));
#310=CARTESIAN_POINT('Ctrl Pts',(22.289845238191,58.0052988659114,-14.9999999999998));
#311=CARTESIAN_POINT('Ctrl Pts',(94.7898452381904,58.0052988659114,-14.9999999999998));
#312=CARTESIAN_POINT('Ctrl Pts',(167.28984523819,58.0052988659113,-14.9999999999998));
#313=CARTESIAN_POINT('Ctrl Pts',(167.28984523819,83.0052988659113,-14.9999999999997));
#314=CARTESIAN_POINT('Ctrl Pts',(167.28984523819,83.0052988659112,7.00000000000027));
#315=CARTESIAN_POINT('Ctrl Pts',(167.28984523819,108.005298865911,7.00000000000035));
#316=CARTESIAN_POINT('Ctrl Pts',(94.7898452381904,108.005298865911,7.00000000000035));
#317=CARTESIAN_POINT('Ctrl Pts',(22.289845238191,108.005298865911,7.00000000000035));
#318=CARTESIAN_POINT('Ctrl Pts',(22.289845238191,83.0052988659113,7.00000000000027));
#319=CARTESIAN_POINT('Ctrl Pts',(22.289845238191,58.0052988659113,7.00000000000019));
#320=CARTESIAN_POINT('Ctrl Pts',(94.7898452381904,58.0052988659113,7.00000000000019));
#321=CARTESIAN_POINT('Ctrl Pts',(167.28984523819,58.0052988659113,7.00000000000019));
#322=CARTESIAN_POINT('Ctrl Pts',(167.28984523819,83.0052988659112,7.00000000000027));
#323=CARTESIAN_POINT('',(167.28984523819,83.0052988659112,7.00000000000026));
#324=CARTESIAN_POINT('Origin',(94.7898452381904,83.0052988659113,7.00000000000026));
#325=CARTESIAN_POINT('',(167.28984523819,83.0052988659113,-14.9999999999997));
#326=CARTESIAN_POINT('Origin',(94.7898452381904,83.0052988659113,7.00000000000026));
#327=UNCERTAINTY_MEASURE_WITH_UNIT(LENGTH_MEASURE(0.01),#331,
'DISTANCE_ACCURACY_VALUE',
'Maximum model space distance between geometric entities at asserted c
onnectivities');
#328=UNCERTAINTY_MEASURE_WITH_UNIT(LENGTH_MEASURE(0.01),#331,
'DISTANCE_ACCURACY_VALUE',
'Maximum model space distance between geometric entities at asserted c
onnectivities');
#329=(
GEOMETRIC_REPRESENTATION_CONTEXT(3)
GLOBAL_UNCERTAINTY_ASSIGNED_CONTEXT((#327))
GLOBAL_UNIT_ASSIGNED_CONTEXT((#331,#333,#334))
REPRESENTATION_CONTEXT('','3D')
);
#330=(
GEOMETRIC_REPRESENTATION_CONTEXT(3)
GLOBAL_UNCERTAINTY_ASSIGNED_CONTEXT((#328))
GLOBAL_UNIT_ASSIGNED_CONTEXT((#331,#333,#334))
REPRESENTATION_CONTEXT('','3D')
);
#331=(
LENGTH_UNIT()
NAMED_UNIT(*)
SI_UNIT(.MILLI.,.METRE.)
);
#332=(
LENGTH_UNIT()
NAMED_UNIT(*)
SI_UNIT($,.METRE.)
);
#333=(
NAMED_UNIT(*)
PLANE_ANGLE_UNIT()
SI_UNIT($,.RADIAN.)
);
#334=(
NAMED_UNIT(*)
SI_UNIT($,.STERADIAN.)
SOLID_ANGLE_UNIT()
);
#335=SHAPE_DEFINITION_REPRESENTATION(#336,#337);
#336=PRODUCT_DEFINITION_SHAPE('',$,#339);
#337=SHAPE_REPRESENTATION('',(#173),#329);
#338=PRODUCT_DEFINITION_CONTEXT('part definition',#343,'design');
#339=PRODUCT_DEFINITION('Base','Base',#340,#338);
#340=PRODUCT_DEFINITION_FORMATION('',$,#345);
#341=PRODUCT_RELATED_PRODUCT_CATEGORY('Base','Base',(#345));
#342=APPLICATION_PROTOCOL_DEFINITION('international standard',
'ap242_managed_model_based_3d_engineering',2011,#343);
#343=APPLICATION_CONTEXT('Managed model based 3d engineering');
#344=PRODUCT_CONTEXT('part definition',#343,'mechanical');
#345=PRODUCT('Base','Base',$,(#344));
#346=PRESENTATION_STYLE_ASSIGNMENT((#347));
#347=SURFACE_STYLE_USAGE(.BOTH.,#348);
#348=SURFACE_SIDE_STYLE('',(#349));
#349=SURFACE_STYLE_FILL_AREA(#350);
#350=FILL_AREA_STYLE('Steel - Satin',(#351));
#351=FILL_AREA_STYLE_COLOUR('Steel - Satin',#352);
#352=COLOUR_RGB('Steel - Satin',0.627450980392157,0.627450980392157,0.627450980392157);
ENDSEC;
END-ISO-10303-21;
